Tag: gotta

Dairybeat – Ive Gotta Get A Message To You – Bee Gees – Cover chords

 DAIRYBEAT: I'VE GOTTA GET A MESSAGE TO YOU (B., R. & M. GIBB) 4/4 - 88

|./.    |: Repeat the previous Chord and/or Measure of 4-Counts.


Intro: | C     | F Fsus4 F | C     | F Fsus4 F 

Verse 1:

   | Bb                             | Cm 
THE PREACHER TALKED WITH ME AND HE SMILED,

       | F                               | Bb 
SAID TO COME AND WALK WITH ME, COME AND WALK ONE MORE MILE.

       |./.                       | Cm 
NOW FOR ONCE IN YOUR LIFE YOU'RE A-LONE,

       | F                            | G 
BUT YOU AIN'T GOT A DIME, THERE'S NO TIME FOR THE PHONE.

Chorus:

         | C                      | Dm         | F G      | C 
I'VE JUST GOTTA GET A MESSAGE TO YOU,  HOLD ON,  HOLD ON.

        |./.                     | Dm             | F G      | C     |
ONE MORE HOUR AND MY LIFE WILL BE THROUGH,  HOLD ON,  HOLD ON.

Verse 2:

 Bb                      | Cm 
   I TOLD HIM I'M IN NO HURRY,

      | F                                 | Bb 
BUT IF I BROKE HER HEART, THEN WON'T YOU TELL HER I'M SORRY.

       |./.                  | Cm 
AND FOR ONCE IN MY LIFE I'M A-LONE,

     | F                           | G 
AND I GOTTA LET HER KNOW, JUST IN TIME BEFORE I GO.

Chorus:

         | C                      | Dm         | F G      | C 
I'VE JUST GOTTA GET A MESSAGE TO YOU,  HOLD ON,  HOLD ON.

        |./.                     | Dm             | F G      | C 
ONE MORE HOUR AND MY LIFE WILL BE THROUGH,  HOLD ON,  HOLD ON.

Verse 3:

       | Bb                      | Cm 
WELL, I LAUGHED BUT THAT DIDN'T HURT,

        | F                            | Bb 
AND IT'S ONLY HER LOVE, THAT KEEPS ME WEARING THIS DIRT.

       |./.                     | Cm 
NOW I'M CRYING, BUT DEEP DOWN IN-SIDE,

      | F                       | G 
WELL I DID IT TO HIM, NOW IT'S MY TURN TO DIE.

Chorus 2x:

         | C                      | Dm         | F G      | C 
I'VE JUST GOTTA GET A MESSAGE TO YOU,  HOLD ON,  HOLD ON.

        |./.                     | Dm             | F G      | C 
ONE MORE HOUR AND MY LIFE WILL BE THROUGH,  HOLD ON,  HOLD ON.


 A         | D                      | Em         | G A      | D 
I'VE JUST GOTTA GET A MESSAGE TO YOU,  HOLD ON,  HOLD ON.
                                                           / (Break)
        |./.                     | Em             | G A      | D 
ONE MORE HOUR AND MY LIFE WILL BE THROUGH,  HOLD ON,  HOLD ON.


Tab by: DAIRYBEAT (André H. Hofman, Purmerend, Netherlands).
FREE* Dairybeat ORIGINALS, COVERS and BACKING TRACKS on:
http://www.soundclick.com/bands/default.cfm?bandID=137360&content=music

https://www.youtube.com/user/Dairybeat

Gotta Have Him chords – Emily Hearn

 Gotta Have Him by Emily Hearn 
Key  B 
No Capo

VERSE 1
 G# 
Oh I can't believe he loves me like he does 
 G# C# 
He takes my hand and flies my heart to the moon
 C# G# 
That's what it's like when he's loving you
 C# G# 
Ooh That's what it's like when he's loving you
 G# 
Oh I can't believe he holds me like he does 
 G# C# 
You'd think I'd act my age, but it's true
 C# G# 
I'm like a child when I am loving you
 C# G# 
Oooh I'm like a child when I'm loving you 
 
PRE-CHORUS
 D# C# 
Ooooohhooo He stole my heart it's oh so wonderful

CHORUS
 D# C# G# 
Aahoooo I, I gotta have him I,I gotta have him
 D# C# G# 
Aahoooo I, I can't imagine what I'd do without him
 D# C# G#  
Aahoooo I, I gotta have him I,I gotta have him
 D# C# D# G# 
Aahoooo He stole my heart its oh so wonderful

VERSE 2
 G# 
Oh I can't believe he kissed me like he did
                                       C# 
I couldn't ever dream of something like this 
                               G# 
I think there's heaven in his lips
 G# 
Oh I can't believe he loves me back
                              C# 
I never want to be with any other man
 G# 
He takes me as I am
 C# G# 
Ooh He takes me as I am

PRE-CHORUS
 D# C# 
Ooooohhooo He stole my heart it's oh so wonderful

CHORUS
 D# C# G# 
Aahoooo I, I gotta have him I,I gotta have him
 D# C# G# 
Aahoooo I, I can't imagine what I'd do without him
 D# C# G#  
Aahoooo I, I gotta have him I,I gotta have him
 D# C# D# G# 
Aahoooo He stole my heart its oh so wonderful

BRIDGE
 G# 
When you're not around I can't think
 C# 
When you're not around I can't sleep
 G# D# 
When you're not around I know just what I need 
 G# 
When you're not around I can't think
 C# 
When you're not around I can't sleep
 G# D# 
When you're not around I know just what I need 
 G# 
Oh when you're not around I can't think
 C# 
Oh when you're not around I can't sleep
 G# D# 
Oh when you're not around I know just what I need 

PRE-CHORUS
 D# C# 
He stole my heart it's oh so wonderful

CHORUS
 D# C# G# 
Aahoooo I, I gotta have him I,I gotta have him
 D# C# G# 
Aahoooo I, I can't imagine what I'd do without him
 D# C# G#  
Aahoooo I, I gotta have him I,I gotta have him
 D# C# D# G# 
Aahoooo He stole my heart its oh so wonderful

      

Gotta Get Out chords – 5 Seconds Of Summer V3

 Use for intro,verse 1, verse 2
E-------------------------------------------------------------------------|
B-------------------------------------------------------------------------|
G------0--------0--------0--------0--------0---------0--------0-------0---|
D----0---0----0---0----0---0----0---0----0---0-----0---0----0---0---0---0-|
A--3--------3--------5--------5---------2--------2--------3------3--------|
E-------------------------------------------------------------------------| 

(use the tab)
even when the sky is falling down
even when the earth is crumbling around my feet
even when we try to say goodbye
you can cut the tension with a knife in here

      Em Cmaj7 
cause i know what will happen
 D 
  if we get through this

chorus:
 G C 
   and if the earth ends up crumbling down to its knees baby
 Em D Cadd9 
   we just gotta get out, we just gotta get out
 G C 
   and if the skyscrapers tumble down and crash around then baby
 Em D Cadd9 
   we just gotta get out, we just gotta get out

(use the tab)

i feel so damn lost
and it comes with a cost
    Cmaj7 
of being alone

 C G Em D 
everything is falling down we're suffering hopeless thought
       C G Em D 
and out we sing prayers go to the sky

chorus:
 G C 
   and if the earth ends up crumbling down to its knees baby
 Em D Cadd9 
   we just gotta get out, we just gotta get out
 G C 
   and if the skyscrapers tumble down and crash around then baby
 Em D Cadd9 
   we just gotta get out, we just gotta get out

bridge:
 D Cadd9  
  and if we fall (it's not your fault)
 D Cadd9  
  shadow covering (our selfish foes)
 D Cadd9 D Cadd9 
  and as our love (go out of the high note)

(use the tab)
even when the sky is falling down
even when the earth is crumbling around my feet

 Cmaj7 
around my feet

chorus:
 G C 
   and if the earth ends up crumbling down to its knees baby
 Em D Cadd9 
   we just gotta get out, we just gotta get out
 G C 
   and if the skyscrapers tumble down and crash around then baby
 Em D Cadd9 
   we just gotta get out, we just gotta get out

*strum once

 Cadd9 D Em G 
   and if the earth ends up crumbling down to its knees then baby
 Cadd9 D C 
   we just gotta get out, we just gotta get out

Do What You Gotta Do Tabs by Meg Baird

 -----------------------------------------------------------------------------
 DO WHAT YOU GOTTA DO - Meg Baird
-----------------------------------------------------------------------------

Cover of a song originally written by Jimmy Webb for The Four Tops

Tuning: Standard (capo 5th fret to match version on "Dear Companion" album)

Chords:

C: x32010               Dm: xx0231
G: 320003 and 320033    Em: 022000
Fmaj7: 133210           Am: x02210
D9/F#: 2x0210

Notes:

- The song is in 4/4 time, and plays at 75 bpm to match the album version. Each "-"
below represents one semi-quaver length (ie a 1/4 beat, or 1/16th of a bar).
- I pick this using my thumb for the alternating bass notes in each bar, and my index
and middle for the other strings.
- Where I've written "h2", "h3" etc below this means you pluck the string open then
hammer on the fret on the next semi-quaver. The one exception to this is in the first hammer
on of the 7th bar of the 1st chorus - here the hammer on is quicker, so that the whole 
"h2" fits inside only one semi-quaver (ie it fits entirely before the 4th string "0"
following it, not overlapping  with it as it appears in the tab below - hope that makes sense!).
- Each Verse is essentially just the Intro played twice over, but there are a few minor
variations in the picking each time the 1st, 2nd & 4th bars are played - below is the
way each bar is played in the Intro, but I haven't tabbed out each variation that 
appears in the Verses. I'm sure Meg doesn't play it exactly the same each time anyway.

Tab:

Intro / Verses:

e|----------------|----------------|-----0-------0--|----------------|
B|-----1-------1--|-----3-------3--|--1----1--1----0|0-0--0-------0--|
G|--0----0--0----0|--0----0--0----0|--2---2---2---2-|-------0--0----0|
D|--2---2---2---2-|--0---0---0---0-|h3--3---3---3---|--0---0---2---2-|
A|3---3---3---3---|h2--2---2---2---|----------------|2---2-------2---|
E|----------------|----------------|----------------|--------0-------|

e|----------------|-----1----------|                   |-----1----------|
B|-----1-------1--|--3----00-0----0|                   |--3----00-0-----|
G|--2----2--2----0|--2---2-------0-|  (in verses last  |--2---2--------0|
D|--3---3---3---3-|0---------0---0-|  bar is instead): |0---------0---0-|
A|----------------|------------h2--|                   |------------h2--|
E|1---1---1---1---|--------3-------|                   |--------3-------|


Chorus 1:

e|----------------|----------------|----------------|----------------|
B|-----1---1---1--|-0-------0---0--|-----1--0-0----0|-----1-------1--|
G|--0----0---0---0|---0-------0---0|--2----0--------|--0----0--0----0|
D|--2---2---2---2-|--2---2---2---2-|--3---3---0---0-|--2---2---2---2-|
A|3---3---3---3---|----2-------2---|------------h2--|3---3---3---3---|
E|----------------|0-------0-------|1---1---3-------|----------------|

e|----------------|----------------|----------------|----------------|
B|-----1-------1--|h1---1----------|--1-0-----1---11|-----1-------1--|
G|--2----2--2----2|--2----0--0----0|-2-2-------0----|--2----2--2----2|
D|--2---2---2---2-|--3---3---0---0-|--3----0--2-h2--|--2---2---2---2-|
A|0-------0-------|------------h2--|------h23-------|0---0---0---0---|
E|----0-------0---|1---1---3-------|1---3-----------|----------------|

e|----------------|---0------------|
B|--1--1--1-----1-|h1---1----0-----|
G|---2--2--2-2-2--|-------0---0---0|
D|--0---0---0---0-|--3---3---0---0-|
A|----------------|------------h2--|
E|h2--2---2---2---|1---1---3-------|


Chorus 2:

e|----------------|----------------|----------------|----------------|
B|--1--1---1---1--|-0---0---0---0--|-----1--0-0----0|-----1-------1--|
G|---0---0---0---0|---0---0---0---0|--2----0--------|--0----0--0----0|
D|--2---2---2---2-|--2---2---2---2-|--3---3---0---0-|--2---2---2---2-|
A|3---3---3---3---|----2-------2---|------------h2--|3---3---3---3---|
E|------------

I Gotta Feeling Just Nineteen Tabs by Eagles Of Death Metal

                                                  Standard tuning
                                             Based on Drokan 14 tab's


Verse

e|----------------------------------------------------|
B|----------------------------------------------------|
G|----------------------------------------------------|
D|---8-/-10-10-10-10-10-xx---8-/-10-10-10-10-10-xx----|
A|---8-/-10-10-10-10-10-xx---8-/-10-10-10-10-10-xx----|
E|---6-/-8--8--8--8--8--xx---6-/-8--8--8--8--8--xx----| 
         
e|------------------------------------------|
B|------------------------------------------|
G|------------------------------------------|
D|---6-/-7-7-7-7-7-xx---6-/-7-7-7-7-7-xx----|
A|---6-/-7-7-7-7-7-xx---6-/-7-7-7-7-7-xx----|
E|---4-/-5-5-5-5-5-xx---4-/-5-5-5-5-5-xx----|

Play x4

 
Chorus

e|-----------------------------------------------------|
B|-----------------------------------------------------|
G|-----------------------------------------------------|
D|---8-/-10-10-10-10-10-xx---10-/-15-15-15-15-15-xx----|
A|---8-/-10-10-10-10-10-xx---10-/-15-15-15-15-15-xx----|
E|---6-/-8--8--8--8--8--xx---8--/-13-13-13-13-13-xx----|

e|------------------------------------------|
B|------------------------------------------|
G|------------------------------------------|
D|---6-/-7-7-7-7-7-xx---6-/-7-7-7-7-7-xx----|
A|---6-/-7-7-7-7-7-xx---6-/-7-7-7-7-7-xx----|
E|---4-/-5-5-5-5-5-xx---4-/-5-5-5-5-5-xx----|


e|----------------------------------------------------|
B|----------------------------------------------------|
G|----------------------------------------------------|
D|---8-/-10-10-10-10-10-xx---8-/-10-10-10-10-10-xx----|
A|---8-/-10-10-10-10-10-xx---8-/-10-10-10-10-10-xx----|
E|---6-/-8--8--8--8--8--xx---6-/-8--8--8--8--8--xx----|


e|------------------------------------------|
B|------------------------------------------|
G|------------------------------------------|
D|---6-/-7-7-7-7-7-xx---6-/-7-7-7-7-7-xx----|
A|---6-/-7-7-7-7-7-xx---6-/-7-7-7-7-7-xx----|
E|---4-/-5-5-5-5-5-xx---4-/-5-5-5-5-5-xx----|


e|-----------------------------------------------------|
B|-----------------------------------------------------|
G|-----------------------------------------------------|
D|---8-/-10-10-10-10-10-xx---10-/-15-15-15-15-15-xx----|
A|---8-/-10-10-10-10-10-xx---10-/-15-15-15-15-15-xx----|
E|---6-/-8--8--8--8--8--xx---8--/-13-13-13-13-13-xx----|

e|------------------------------------------|
B|------------------------------------------|
G|------------------------------------------|
D|---6-/-7-7-7-7-7-xx---6-/-7-7-7-7-7-xx----|
A|---6-/-7-7-7-7-7-xx---6-/-7-7-7-7-7-xx----|
E|---4-/-5-5-5-5-5-xx---4-/-5-5-5-5-5-xx----|


e|-----------------------------------------------------|
B|-----------------------------------------------------|
G|-----------------------------------------------------|
D|---8-/-10-10-10-10-10-xx---10-/-15-15-15-15-15-xx----|
A|---8-/-10-10-10-10-10-xx---10-/-15-15-15-15-15-xx----|
E|---6-/-8--8--8--8--8--xx---8--/-13-13-13-13-13-xx----|


e|------------------------------------------|
B|------------------------------------------|
G|------------------------------------------|
D|---7-7-6--7-7-6---7-7-6--7--7-7-----------|
A|---7-7-6--7-7-6---7-7-6--7--7-7-----------|
E|---5-5-4--5-5-4---5-5-4--5--5-5-----------|



Bridge

e|------------------------------------------------|
B|------------------------------------------------|
G|------------------------------------------------|
D|---8-/-10-10-10-10-10----8-/-10-10-10-10-10-----|
A|---8-/-10-10-10-10-10----8-/-10-10-10-10-10-----|
E|---6-/-8--8--8--8--8-----6-/-8--8--8--8--8------| 
         
e|----------------------------------------|
B|----------------------------------------|
G|----------------------------------------|
D|---6-/-7-7-7-7-7----6-/-7-7-7-7-7-xx----|
A|---6-/-7-7-7-7-7----6-/-7-7-7-7-7-xx----|
E|---4-/-5-5-5-5-5----4-/-5-5-5-5-5-xx----|




Verse

e|-------

Everybodys Gotta Learn Sometime Live chords – Beck

 Hi there, this are the chords for the this live version



Tuning: E standard
Capo: Fret #2

Chords  
(*) Chords are related to capo.
Tuning:

    Am D F/C B7 E G/D Em   Emadd9   C   Cadd#11
e|-0---0--0--------0----0----0----0-----0-----0--------------------------|
B|-1---3--1-----0--0----3----0----3-----1-----1--------------------------|
G|-2---2--2-----2--1----4----0----0-----0-----0--------------------------|
D|-2---0--3-----1--2----5----2----2-----2-----4--------------------------|
A|-0------3-----2--2----5----2----2-----3-----3--------------------------|
E|-----------------0---------0----0--------------------------------------|


Intro  Am D  –  F/C  x4

 Am D F/C 
Change your heart
 Am D F/C 
Look around you
 Am D F/C 
Change your heart
 Am D F/C 
It will astound you
 Am B7 E F/C G/D 
I need your lovin' like the sunshine

 Em F/C Am       Emadd9
Everybody's gotta learn sometime
Everybody's gotta learn sometime
Everybody's gotta learn sometime, mmm

 C        Cadd#11

Change your heart
Look around you
Change your heart
It will astound you

I need your lovin' like the sunshine
Everybody's gotta learn sometime
Everybody's gotta learn sometime
Everybody's gotta learn sometime, mmm

Outro 
 Am D  –  F/C  x2
 Am B7 E F/C G/D C  Cadd#11 
 C 

Cheers.