Tag: gregory

Girl With The Feather chords – Gregory Alan Isakov

 Artist: Gregory Alan Isakov
Song: Girl With the Feather
Unreleased
: Jo Lefebure
Tuning: Standard (capo 4)
Since this is an unreleased song, the lyrics might be off in places.
Feel free to correct the lyrics but please rate the tab for its guitar parts. Thank you.
C F C G Am F C G Am F C G C C F 
Well I ain't got a dollar and I ain't got a dime
C G 
But this fire in my chest, that's mine, all mine
Am F 
Try to take it away, in my skin it should stay
C G Am F C G C            
For the girl with the feather in her hair
C F 
Well I ain't got a poem and I ain't got a prayer
C G 
Got nothing to say so I just smoke and stare
Am F 
The sun it'll boil on my skin as I stand
C G Am F 
For the girl with the poem in her hand
C G C 
For the girl with the poem in her hand
G F C 
Play me a tune, let the music just croon from the window
G Am 
Don't turn it down
G F 
Let the fleas and the flies crawl over us now
C G Am 
As we watch while it all goes down
G 
See those clouds turning red
F G C 
That's the girl with the fire in her hair
C F C G Am F C G Am F C G C C F 
Now I never had seen such a beautiful scene
C G 
She can't haul the jewels that she found on the beach
Am F 
So I watch from afar as my eyes turn to stone
C G Am F 
And I watched her just lying all alone
C G C 
The girl with the diamonds in her bow
C F 
And I long for an end, born a mule and all (?)
C G 
But you know what they say, we all die alone
Am F       
In my heart she's going everywhere that I go
C G Am F 
Down in my grave she's there
C G C 
The girl with the feather in her hair
G F C 
Play me a tune, let the music just croon from the window
G Am 
Don't turn it down
G F 
Let the fleas and the flies crawl over us now
C G Am 
As we watch while it all goes down
G 
See those clouds turning red
F G C 
That's the girl with the fire in her hair

This Empty Northern Hemisphere chords – Gregory Alan Isakov

 #  This Empty Northern Hemisphere
#  ------------------------------
#  By:  Gregory Alan Isakov
Intro:   Bb  -  F  (x4)
Bb F 
Smoke it flies from whisky mouths   /   vagabonds walk this suitcase town
Bb F 
summer left us beckoning   /   the cottonwoods were all worn out
Bb F 
night comes fixing on the day   /   and the universe reigned again
Dm F Bb Dm 
while the wheels roll, to find a flickering light
Bb F C Gm 
While you were sleeping i was the turning the dials
Bb F C Gm 
and i walled up your kingdom with radio wires
Bb F C Gm 
and the bells of the choir came in low and rumbling
Bb 
..aw, you should-a heard them...
Instrumental:   Bb   -  F  (x2)
Bb F 
Living here in this city on fire, well i’ve been fine
Bb F 
just dancing drunk above the street   /   me the ghost of caroline
Bb                                                         
and that was me, ya know, calling up above   /   
F 
from the steeples in the church yard
Dm F Bb Gm 
watch the wheels roll to find another place home
Bb F C Gm 
While you were sleeping, you bet that i might
Bb F C Gm 
walk this empty northern hemisphere wide
Bb F C Gm 
and the kingdom it came, well it all fell down
Bb   
it all fell to dust   /   and it all fell...
Dm Bb C C  (x6)
Bb F C Gm 
While you were sleeping i was the turning the dials
Bb F C Gm Bb 
walk this empty northern hemisphere wide...         
[end]

Master And A Hound Tabs by Gregory Alan Isakov

 Master & A Hound
Gregory Alan Isakov
Notes:
*Capo 2
*Picking pattern in the Intro continues throughout the song
*Release D string on all transitions from Em to C/G (see how it happens in the Intro)
*Numbers in parentheses signify chord duration in bass note counts (i.e., for “G (8),” 
pick the G chord for 8 counts of the lowest note, like in the beginning of the Intro)
*A plus sign (+) in the parenthesis means continue for the given number of counts (i.e., 
for “Em (8) Em (+8),” pick the Em chord for a total of 16 continuous counts)
Chords:
G      Em     C/G    D/F#
E|---0------0------0------2---|
B|---0------0------1------3---|
G|---0------0------0------2---|
D|---0------2------2------0---|
A|---2------2------3------0---|
E|---3------0------3------2---|
Intro:
G (8)                           Em (8)
E|--------------------------------------------------------------------|
B|------0---0---0---0---0---0---0---0---0---0---0---0---0---0---0---0-|
G|-----0---0---0---0---0---0---0---0---0---0---0---0---0---0---0---0--|
D|-------0---0-----------0-------0-------2---2-----------2-------0----|
A|--------------------------------------------------------------------|
E|---3-----------3---3-------3-------0-----------0---0-------0--------|
C/G (16)
E|--------------------------------------------------------------------|
B|------1---1---1---1---1---1---1---1---1---1---1---1---1---1---1---0-|
G|-----0---0---0---0---0---0---0---0---0---0---0---0---0---0---0---0--|
D|-------2---2-----------2-------2-------2---2-----------2-------2----|
A|--------------------------------------------------------------------|
E|---3-----------3---3-------3-------3-----------3---3-------3--------|
G           C/G                 G (8)
E|--------------------------------------------------------------------|
B|------0---0---0---1---1---1---1---0---0---0---0---0---0---0---0---0-|
G|-----0---0---0---0---0---0---0---0---0---0---0---0---0---0---0---0--|
D|-------0---0-------2---2-------2-------0---0-----------0-------0----|
A|--------------------------------------------------------------------|
E|---3-----------3-----------3-------3-----------3---3-------3--------|
C/G (8)                          G (8)  Em (8)
Where were you when I was still kind
Em (+8)
Just a water treader
C/G (8)         G (8)  Em (8)
Waiting on the line
Em (+8)
Just a dry gin drinker
C/G (8)       G (8)  Em (8)
Master and a hound
Em (+8)
Turned a circus swinger
C/G (8)            G (8)
Look, he's coming down
D/F# (16)
Down
C/G (8)
Can you shake it up
G (8)
Just once for me
Em (8)               C/G (16)
Your little globe just so we can see
G (8)      D/F# (16)
The snow blowing round your hands
C/G (8)
And the wing-nut turned
G (8)
The song that we both know
Em (8)           C/G (16)
Sent us flying round the carnival
G (8)          D/F# (16)
You can throw all your lucky coins on me
C/G (8)  G (8)  D/F# (8)  Em (8)  C/G (8)  G (8)  D/F# (8)  C/G (8)
On me

Blind And Unwise chords – Gregory And The Hawk

 C Am 
You say ‘so, convince me to stay’ 
F Dm C Am F Dm 
i luckily am trained and say ‘stay’
C Am F Dm 
you say ‘baby, don’t toe the line. 
C Am            
don’t you think that love should
F Dm  
be blind and unwise?’ 
you’ve been going, going gone 
if only in my mind 
and it’s taken so long but i feel light 
you say ‘baby, don’t take your time 
anymore... 
don’t you think that love should be 
pure and kind?’ 
C Am F Dm 
just do what you want to do 
C Am F Dm 
go where we’re going to 
just do what you want to do 
and hope that love will follow you

In Tall Buildings Tabs by Gregory Alan Isakov

 e|------------------------------------------------------------|
B|--0-----------------3---------0-------------0----0----0-----|
G|------0-----------2--------------0--------------------------|
D|----0-----0-----0------0-------2----2--------------0--------|
A|----------------------------------------------0h2-----------|
E|-3------3------2-----2------0------0------3-----------------|
e|--------------------------------------------------------|
B|---1-------------3--------------3-----------3-----------|
G|-------0-------------0-------------4-----------0--------|
D|-----2-----2-------2-----2-------5----5------2----2-----|
A|-3-------3-----5-------5------5-----5-----5-----5-------|
E|--------------------------------------------------------|

Astronaut chords – Gregory Alan Isakov V2

 C                  
I work mornings in the old yard
Em 
digging in the ground
F 
but I moonlight as an astronaut
C/G Em 
mostly just sit around and howl
C 
won't you come to my house tonight
Em 
we could sleep on the floor
F 
I got this window that looks out to Orion
C/G Em 
I paid extra for
C 
oh forget about the sun
Em 
he's forgotten us by now
F C/G         
kiss me so I remember how
C 
we'll turn these sorrows into strangers
Em 
buy them a ticket on the train
C 
drop 'em off at the station 
E 
watch 'em ride far away
Am Asus2  
far away . . .
Am C/G    
far away . . .
Am Asus2  
far away . . .
Am C/G    
far away . . .

Rawnald Gregory Erikson The Second Tabs by Starfucker

 Artist: Starfucker
Title: Rawnald Gregory Erikson the Second
Starf**ker
The actual guitar playing is pretty simple. The "x" is a mute, which is what it sounds 
like to me, or it can be replaced with another 12 (so you get 12-12-14 followed by the 12 
on the D string), or you can just omit the "x" and play it straight-forward.
Sorry if the Guitar 1, Guitar 2 looks confusing, I wanted to juxtapose both tabs to 
show that both guitars are plucked in sync.
It sounds good if you layer these on a loop pedal.
GUITAR 1:
E|-------------------------------------------------------------------------------------------|
B|-------------------------------------------------------------------------------------------|
G|-------------------------------------------------------------------------------------------|
D|------------------------------12------------------------------12---------------------------|
A|---14--12--14--12--14--12-x14------14--12--14--12--14--12-x14-----14--12--14--12-----------|
E|-------------------------------------------------------------------------------------------|
Guitar 2:
E|-------------------------------------------------------------------------------------------|
B|-------------------------------------------------------------------------------------------|
G|-------------------------------------------------------------------------------------------|
D|-------------------------------------------------------------------------------------------|
A|---10--10--10--10--10--10--10--10--10--10--10--10--10--10--10--10--9---9---9---9-----------|
E|-------------------------------------------------------------------------------------------|
GUITAR 1:
E|-------------------------------------------------------------------------------------------|
B|-------------------------------------------------------------------------------------------|
G|-------------------------------------------------------------------------------------------|
D|--------------12------------------------------12------------------------------12-----------|
A|---14--12-x14------14--12--14--12--14--12-x14------14--12--14--12--14--12-x14--------------|
E|-------------------------------------------------------------------------------------------|
Guitar 2:
E|-------------------------------------------------------------------------------------------|
B|-------------------------------------------------------------------------------------------|
G|-------------------------------------------------------------------------------------------|
D|-------------------------------------------------------------------------------------------|
A|---9---9---9---9---10--10--10--10--9---9---9---9/--0---0---0---0/--7---7---7---7-----------|
E|-------------------------------------------------------------------------------------------|
The bass part is transcribed for guitar. I think you get the best tone playing on the 
low E string, but you can incorporate the A string and get the same notes if you want to 
lessen hand movement.
Bass:
E|-------------------------------------------------------------------------------------------|
B|-------------------------------------------------------------------------------------------|
G|-------------------------------------------------------------------------------------------|
D|-------------------------------------------------------------------------------------------|
A|-------------------------------------------------------------------------------------------|
E|---3-----3-3-------3-----3-3-------3-----3-3-------3-----3-3-------7-----7-7---------------|
E|-------------------------------------------------------------------------------------------|
B|-------------------------------------------------------------------------------------------|
G|-------------------------------------------------------------------------------------------|