Tag: her

Let Her Go guitar chords by Passenger

Capo 7th fret

[Intro]
    G                F        G               Am    G                  F           G    Am
e|-----0-------------------0-----0----------------0-------0-------------------3p0-------0---|
B|--3-----3--1-------1--------3-----3--1------1-----3--3----3--1-------1----1------1h3--1---|
G|--------------0h2--2--2----------------0h2----0-----------------0h2--2--2-----------------|
D|-------------------3-------------------------------------------------3--------------------|
A|--------------------------------------------0-----------------------------------------0---|
E|----------------------------3---------------------3--3---------------------------3--------|

    G                F        G               Am     G                  F           G    Am
e|-----0-------------------0-----0----------------0--------0-------------------3p0-------0--|
B|--3-----3--1-------1--------3-----3--1------1------3--3----3--1-------1----1------1h3--1--|
G|--------------0h2--2--2----------------0h2----0------------------0h2--2--2----------------|
D|-------------------3--------------------------------------------------3-------------------|
A|--------------------------------------------0------------------------------------------0--|
E|--3-------------------------3----------------------3--3---------------------------3-------|

[Chorus]
                       F                       C
Well you only need the light when it's burning low
              G                       Am
Only miss the sun when it starts to snow
               F                           C       G
Only know you love her when you let her go
                      F                        C
Only know you've been high when you're feeling low
              G                        Am
Only hate the road when you're missin  home
               F                         C
Only know you love her when you've let her go
G
  And you let her go

[Instrumental]
Am   F   G   Em
Am   F   G

[Verse 1]
Am                            F
Staring at the bottom of your glass
        G                            Em
Hoping one day you will make a dream last
               Am               F          G
The dreams come slow and they go so fast
    Am                          F
You see her when you close your eyes
      G                           Em
Maybe one day you will understand why
               Am           F         G
Everything you touch surely dies

[Chorus]
                      F                       C
But you only need the light when it's burning low
              G                       Am
Only miss the sun when it starts to snow
               F                           C       G
Only know you love her when you let her go
                      F                        C
Only know you've been high when you're feeling low
              G                        Am
Only hate the road when you're missin  home
               F                         C       G
Only know you love her when you've let her go

[Verse 2]
Am                            F
Staring at the ceiling in the dark
         G                     Em
Same old empty feeling in your heart
           Am                 F       G
Love comes slow and it goes so fast
         Am                      F
Well you see her when you fall asleep
                G                  Em
But to never to touch and never to keep
                          Am
Because you loved her too much
                  F          G
And you dived too deep

[Chorus]
                       F                       C
Well you only need the light when it's burning low
              G                       Am
Only miss the sun when it starts to snow
               F                           C       G
Only know you love her when you let her go
                      F                        C
Only know you've been high when you're feeling low
              G                         Am
Only hate the road when you're missin'  home
               F                         C         G
Only know you love her when you've let her go

[Bridge]
                Am
And you let her go
      F     G
Ooooo ooooo oooooo
                Am
And you let her go
        F     G
Ooooooo ooooo ooooo
                Am         F    G   Em
And you let her go

[Interlude]
Am    F    G

[Chorus]
                          F                       C
Because you only need the light when it's burning low
              G                       Am
Only miss the sun when it starts to snow
               F                           C       G
Only know you love her when you let her go
                      F                        C
Only know you've been high when you're feeling low
              G                         Am
Only hate the road when you're missin'  home
               F                         C
Only know you love her when you've let her go

[Chorus]
                          F                     C
Because you only need the light when it burning low
              G                       Am
Only miss the sun when it starts to snow
               F                           C       G
Only know you love her when you let her go
N.C.
Only know you've been high when you're feeling low

Only hate the road when you're missin  home

Only know you love her when you've let her go

And you let her go


***********************************

| h   Hammer-on
| p   Pull-off

***********************************

Go To Her intro Tabs – Jefferson Airplane

 -------------------------------------------------------------------------------
                        GO TO HER - Jefferson Airplane
-------------------------------------------------------------------------------
: sezar
 keanu-rimedorf@hotmail.com

Tuning: Standart

Am - Em - Am - D -

e|-0-1-0-----------|
B|-------3-1-------|
G|-----------2-----|
D|-------------2-0-|
A|-----------------|
E|-----------------|

Am - Em - Am - D -

e|-----------5-3-5-|
B|-5-3-1-3-1-------|
G|-----------------|
D|-----------------|
A|-----------------|
E|-----------------|

Am - Em - Am - D -

e|-5-3-0-----------0---------------|
B|-------3-1---------3-1-3-1-------|
G|-----------2-0-2-----------2-0-2-|
D|---------------------------------|
A|---------------------------------|
E|---------------------------------|


************************************

| /   slide up
| \   slide down
| h   hammer-on
| p   pull-off
| ~   vibrato
| +   harmonic
| x   Mute note
| b   Bend
| pb  Pre-bend
| br  Bend release
| pbr Pre-bend release
| brb Bend release bend

************************************

The Last Time I Saw Her Face chords – Glen Campbell

 The Last Time I Saw Her Face
Recorded by Glen Campbell
Written by Gordon Lightfoot

Intro   C Cmaj7 C Cmaj7 F Dm F Dm G G7 G G7 C   


Verse 1
     G C Dm F 
The last time   I saw her face
 G G7 G G7 C           
Her eyes were bathed in starlight and her hair hung long
      G C Dm F 
The last time  she spoke to me
 G G7 G G7 C Cmaj7 C Cmaj7 F 
Her lips were like the scented flowers inside a rain-drenched forest


Bridge

 F G7 F C 
But that was so long ago that I can scarcely feel
           Dm F G G7 C 
The way I felt before        and if time could heal the wounds
 Cmaj7 C F C Dm G7     
I would tear the threads away that I might bleed some more 


Verse 2
  
     C Cmaj7 Dm F 
The last time I walked with her
 G7 G F G           
Her laughter was the steeple bells that rang to greet the morning sun
 F G F G7  
A voice that called to everyone to love the ground we walked upon
                C Cmaj7 F G G7 C Cmaj7 
Those were her good days


Verse 3

 C Cmaj7 G F Dm  
The last time        I held her hand
 G G7 C  
Her touch was autumn spring and summer and winter too
     Cmaj7 C F   
The last time    I let go of her
 G G7 F G   
she walked away into the night I lost her in the misty streets
 F G F G  
A thousand months a thousand years when other lips will kiss her eyes
 F G G7 C           
A million miles beyond the moon that's where she is


Verse 4

      Cmaj7 C Cmaj7 F Dm  
The last   time I     saw her face
 G G7 C            
Her eyes were bathed in sadness and she walked alone
                   F  
The last time she kissed my cheek
 G G7 F G            
Her lips were like the wilted leaves upon the autumn covered hills
 F G F G     
Resting on the frozen ground the seeds of love lie cold and still
 F G7 C Cmaj7 F Fm C  
Beneath a battered marking stone it lies forgotten 

flyinglibra51
God Bless Glen Travis Campbell

Pacify Her intro Tabs – Melanie Martinez

 So this is my first tab, and I hope you like it!                        
Email: munya1004
E|----1-----0---0---------------------1-----0--------------------|         
B|--3-----1---1-------1-----1-------3-----1---1----0-------1--1--|         
G|2-----2-----------2-----2-----2-2-----2--------0-------2--2----|        
D|----------------3-----3-----3----------------2-----2-3---------|             
A|---------------------------------------------------------------|         
E|---------------------------------------------------------------|

Let Her In Tabs – Peer Günt

 Intro:
e:---------------------------------------------------------------------------|
B:---------------------------------------------------------------------------|
G:--2-----------------------------2--2--2-----------------------------2--2---|
D:--2--------4p-2-----------------2--2--2--------4p-0-----------------2--2---|
A:--0--3p-0--------3p-0--3p-0-----0--0--0--3p-0--------3p-0--3p-0-----0--0---|
E:-----------------------------3-----------------------------------3---------|


       
e:---------------------------------------------------------------------------|
B:---------------------------------------------------------------------------|
G:---------------------------------------------------------------------------|
D:--2------------------------------------------------------------------------|
A:--2------------------------------------------------------------------------|
E:--0------------------------------------------------------------------------|


Verse1(With partial drums):                           
e:---------------------------------------------------------------------------|
B:---------------------------------------------------------------------------|
G:--2-----------------------------2--2---------------------------------------|
D:--2--------4p-2-----------------2--2---------------------------------------|
A:--0--3p-0--------3p-0--3p-0-----0--0---------------------------------------|
E:-----------------------------3---------------------------------------------|


Bridge:
e:---------------------------------------------------------------------------|
B:---------------------------------------------------------------------------|
G:---------------------------------------------------------5-----------------|
D:---------2------------2------------2-------------2-------5--5--7-----------|
A:---------2------------2------------2-------------2-------3--5--7-----------|
E:---3--3~-0------3--3~-0------3--3~-0-------3--3~-0----------3--5-----------|



Verse2(With full drums):
e:---------------------------------------------------------------------------|
B:---------------------------------------------------------------------------|
G:----2-----------------------------2--2-------------------------------------|
D:----2--------4p-2-----------------2--2-------------------------------------|
A:----0--3p-0--------3p-0--3p-0-----0--0-------------------------------------|
E:-------------------------------3-------------------------------------------|


Bridge:
e:---------------------------------------------------------------------------|
B:---------------------------------------------------------------------------|
G:---------------------------------------------------------5-----------------|
D:---------2------------2------------2-------------2-------5--5--7-----------|
A:---------2------------2------------2-------------2-------3--5--7-----------|
E:---3--3~-0------3--3~-0------3--3~-0-------3--3~-0----------3--5-----------|


Chorus:
e:---------------------------------------------------------------------------|
B:---------------------------------------------------------------------------|
G:-----2--5--7--------5--5----7--7------2-----------------------------2--2--2|
D:-----2--5--7--------5--5----7--7------2--------4p-2-----------------2--2--2|
A:-----0--3--5--------5--5----5--5------0--3p-0--------3p-0--3p-0-----0--0--0|
E:-----------------------------------------------------------------3---------|



e:---------------------------------------------------------------------------|
B:---------------------------------------------------------------------------|
G:-----------------------------2--5--7-------5--5-----7--7-----9--9----------|
D:--------4p-2-----------------2--5--7-------5--5-----7--7-----9--9----9--10-|
A:--3p-0--------3p-0--3p-0-----0--3--5-------5--5-----5--5-----7--7----7--8--|
E:--------------------------3------------------------------------------------|



e:------------------------------------------------------------

Are You Swimming In Her Pools chords – Swan Lake

 This song was  "insterstellarburst" over on indieguitartabs.com .
All credit goes to the original tabber.
I just wanted to put it in a format that was easier for me to read!

Intro
e--------------------------------------------------
b--------------------------------------------------
g--2-2---2-2---2-2---2-2---2-2---2-2---2-2---2-2---
d--3—-3--3—-3--3—-3--3—-3--3—-3--3—-3--3—-3--3—-3--
a--------------------------------------------------
E--------------------------------------------------


e---------------------------------------------------
b---------------------------------------------------
g--2-2---2-2---2-2---2-2----------------------------
d--3--3--1--1--0--0--------5-5---5-5---5-5/--3-3----
a---—--—--—--—--—--—-3—-3—-1—-1--1—-1--1—-1--1—-1—--
E---------------------------------------------------
Will you be swimming in her pools?
Are you swimming in her pools?
Are you swimming in her pools?

 Am Dm 
Oh ah ah oh
 Am Dm 
Oh ah ah oh

e---------------------------------------------------
b---------------------------------------------------
g--2-2---2-2---2-2---2-2----------------------------
d--3--3--1--1--0--0--------5-5---5-5---5-5/--3-3----
a---—--—--—--—--—--—-3—-3—-1—-1--1—-1--1—-1--1—-1—--
E---------------------------------------------------
Will you be brushing off her snow?
Will you be brushing off her snow?
Will you be brushing off her snow?

 Am Dm 
How can you stand the cold?
 Am Dm 
How can you stand the cold?

                 F C 
And if you're still there when it snows
                Dm Am 
Will you still be there when it goes?
                G 
Will you still be there when it's time

To fill the pools again?

          Am G F 
And will you be coming back here?
 Dm G F 
Will you be coming back here?
 Dm G F 
Will you be coming back here?

 Dm G Dm 

e---------------------------------------------------
b---------------------------------------------------
g--2-2---2-2---2-2---2-2----------------------------
d--3--3--1--1--0--0--------5-5----------------------
a---—--—--—--—--—--—-3—-3—-1—-1------------------—--
E---------------------------------------------------
Are you running up the river banks
And tracing them like long fingers...

e---------------------------------------------------
b---------------------------------------------------
g--2-2---2-2---2-2---2-2----------------------------
d--3--3--1--1--0--0--------5-5---5-5---5-5/--3-3----
a---—--—--—--—--—--—-3—-3—-1—-1--1—-1--1—-1--1—-1—--
E---------------------------------------------------
Are you running up her river banks
And navigating long fingers of a hand

 Am Dm 
'Cause fingers make the hand
 Am Dm 
And rivers make the land

e---------------------------------------------------
b---------------------------------------------------
g--2-2---2-2---2-2---2-2----------------------------
d--3--3--1--1--0--0--------5-5---5-5---5-5/--3-3----
a---—--—--—--—--—--—-3—-3—-1—-1--1—-1--1—-1--1—-1—--
E---------------------------------------------------
Is she cradling you well?
Oh is she cradling you well?
Because if I call you baby, she should cradle you well

 Am Dm 
Does she fucking know?
 Am Dm 
Does she fucking know?

               F C Dm        
And how the lines that appear around your eyes
                Am 
When you are smiling
       G 
Are revered for the way in which they always reappear

         Am</s

When I Ran Off And Left Her chords – Drive-By Truckers

 When I Ran Off And Left Her
Performed By: Drive By Truckers
Written By: Vic Chesnutt

                    D C G 
When I ran off and left her, she wasn't holding a baby
                       D C G 
But she was holding a bottle, and a big grudge against me
 C Bm 
I tried to learn from a psychiatrist
 Am G 
How to stay calm, and minimize risk
 C Bm 
I shoulda kept all those appointments
 C D 
I'm gonna need them, I'm coming disjointed

                    D C G 
When I ran off and left her, I didn't look backward
                             D C G 
Till I was halfway to Chattanooga, on the Atlanta connector
 C Bm 
That's when I started flashin' on all the things that she did
 Am G 
All her little sayings, and I started to wig
 C Bm 
I shoulda kept all those appointments
 C D 
I'm gonna need them, I'm coming disjointed


Do It For Him Her chords – Rebecca Sugar

 -------------------------------------------------------------------------------
           Do It For Him/Her - From Steven Universe - Rebecca Sugar
-------------------------------------------------------------------------------
: Alex M.

Tuning: Standard
No Capo

Chords:  (If you find a chord shape that sounds better, feel free to use it!)
   F7/6    G C CM7 D7sus2 Am B7 Em Dm A7 Asus2 Cadd9 
e|--0-----3----3----3------0-----0----2----0----1----3------0-------0--|
A|--1-----3----1----0------1-----1----0----0----3----2------0-------3--|
D|--2-----0----0----0------2-----2----2----0----2----2------2-------0--|
G|--0-----0----2----2------0-----2----1----2----0----2------2-------2--|
B|--0-----2----3----3------------0----2----2---------4------0-------3--|
E|--1-----3--------------------------------0---------------------------|
    ^This one's weird, it's actually an inverted D7sus2, played only in the beginning.
Additionally, the A7 isn't really an A7. I guess it's more of a A7/C#, but whatever. It's only played once.
I like the sound of the C and CM7 chords with the 3rd fret on the high E string, but it isn't necessary.
And of course the Cadd9 is just the final chord. How fun.


Play an arpeggio F7/6 as the intro.

                F7/6    G 
You'd do it for him
                      C CM7 
And you would do it again
                F7/6             G 
You'd do it for her, that is to say
                  C 
You'll do it for him

 D7sus2 Am 
   Keep your- stance wide
 D7sus2 Am 
   Keep your body lowered
 D7sus2 G 
   As you're moving forward
 C B7 
Balance is the key
 Em B7 
   Right foot - left foot
 Em B7 
   Now go even faster
 Em Dm 
   And as you're moving backwards
 C CM7 
Keep your eyes on me

 D7sus2 Am 
   Keep my - stance wide (Good.)
 D7sus2 Am 
   Keep my body lowered (Right.)
 D7sus2 G C 
   As I'm moving forward (Concentrate!)
 B7 Em 
   (Don't you want him to live!?)

               B7 
   Right foot - left foot
 Em B7 
(Yes, but put your whole body into it!)
 Em Dm C 
Everything you have, everything you are
               B7 
You've got to give

        Em 
On the battlefield,
                    Am 
when everything is chaos
                              Em Am 
And you have nothing but the way you feel, your strategy and a sword
                          G C A7 
You just think about the life you'll have, together after the war

                         D7sus2 
And you would do it for her
 G Em 
   That's how you know you can win
 Asus2  -  Am D7sus2 
   You'd do it for her
            G 
That is to say,
                  C 
You'll do it for him.

 D7sus2 Am 
   Deep down - you know
 D7sus2 Am 
   You weren't built for fighting
 D7sus2 G 
   But that doesn't mean
        C B7 
You're not prepared to try
 Em B7 
   What they - don't know
 Em B7 
   Is your real advantage
 Em Dm 
   When you live for someone
 C Em 
You're - prepared to die
 D7sus2 Am 
   Deep down - I 

You Wanna Make Her Happy chords by Searchers

            The Searchers 1965
From the 4th Pye  Sounds Like Searchers

Intro:  G /     A/D  x 3

           G Bm 
You wanna make her/happy
          E Am 
You wanna keep her/smilin'
            D 
Then you gotta say you
     C D G   Intro riff
love her/every/day/

 G       Spoken          A D 
 /Tell her that you/love/her
 G        Spoken         A D    
 /That you won't de/ceive/her
 G      Spoken        A D 
 /And never ever/leave/her

           G Bm 
You wanna make her/happy
          E Am 
You wanna keep her/smilin'
            D 
Then you gotta say you
     C D G   Intro riff
love her/every/day/

                 C G 
Cuz a woman never knows if a/man loves her
              C G    
He should tell her every/day
                      A 
That's the only thing a woman needs to know
             C D 
To keep her happy any/way


 G        Spoken        A D  
 /Need her love and/say/so
 G          Spoken        A D  
 /When she's sad and/feels/low
 G          Spoken       A D  
 /Kiss her till the/tears/go


           G Bm 
You wanna make her/happy
          E Am 
You wanna keep her/smilin'
            D 
Then you gotta say you
     C D G   Intro riff
love her/every/day/


Solo: Slow riff over Intro x 3


                 C G 
Cuz a woman never knows if a/man loves her
              C G    
He should tell her every/day
                      A 
That's the only thing a woman needs to know
             C D 
To keep her happy any/way


 G       Spoken          A D 
 /Tell her that you/love/her
 G        Spoken         A D    
 /That you won't de/ceive/her
 G      Spoken        A D 
 /And never ever/leave/her


           G Bm 
You wanna make her/happy
          E Am 
You wanna keep her/smilin'
            D 
Then you gotta say you
     C D G   Intro riff
love her/every/day/


Outro: Intro chords x3 add final  G

If I Could Be Her chords – Zz Ward

 If I Could Be Her
by ZZ Ward

I had to figure this out by ear (and watching the guitarist's hand movements). I don't 
wish that upon my
worst enemy. So here's a tab so you don't have to go through what I did.

(on the recording, the guitarist capos 1. I don't find a need to do this, but if you do, 
drop this down
a half step and go crazy)
Intro:
 C Ab Bb C F Eb  (x2)


Verse 1:
 C Ab Bb C F Eb 
She's got Chanel up on her lips
 C Ab Bb C F Eb 
A four inch skirt down on her hips
           C Ab Bb C F Eb 
And all I got is just a couple pair of jeans
 C Ab Bb C F Eb 
She's so hot, and she's the only thing you see
Pre-Chorus:
 C Ab Eb Bb 
If I had her heels on I would never do you wrong
 C Ab 
She treats you like a patient
 Eb 
With the lies she's got you on
 C 
Turn the lights off
       Eb 
Cause I'm all yours
              Ab 
Cover you in my curves
              G7 
I'd give ya what you deserve
 C 
We could get lost
         Eb 
Get the lines crossed
             Ab 
Run ya like a fever
 G7 
Woah if I could be her
 C Eb 
Woah woah oh
 Ab G7 
I'd keep you forever
Verse 2:
 C Ab Bb C F Eb 
She's got the perfect little car
 C Ab Bb C F Eb 
I drive a Chevy with the paint peeling off
 C Ab Bb C F Eb 
She's got her daddy's credit card
 C Ab Bb C F Eb 
I play for dollars down on Diamond Boulevard

(Pre-Chorus)
(Chorus)

Bridge:
 F Cm Bb 
If I was her, I'd be your silver lining after the storm
 F Cm Bb 
Cause I can't stand seeing you crying no more

(Chorus)

END

Sick In Her Skin chords – Get Up Kids

 The Get Up Kids
Sick In Her Skin
Guilt Show
2004 Vagrant Records
Submitted by: jeremyunderground41

Key:  F# ,  B ,  E 

Tuning: Standard EADGBe

Chords used:
 F#  -  244322
 E  -   022100
 B  -   x24442
 C#  -  x46664
 C#m  - x46654
 G#m  - 466444
 D  -   xx0232


Intro: E---F#---E---

With Drums: F#-- x4


Verse 1:
 F# 
  Baby Deleilah
Sick in her skin
Out on the highway
living for nothing


Refrain 1:
          B C#m G#m 
It's the same old song
 E F# B C#m 
a-gain In absence
 G#m E F# 
she defends 


Chorus 1:
 C# 
  On the moon and
        B 
on forever she
 E (Hold)
said You should
             F#-- x4
still be here


Verse 2:
 F# 
  Hooks in her heart
saw Escape if you
can Clear out the 
room I'll open the
window I'll fly in
Blood on the table
She made up her mind 
All of the times we
had were for nothing 
But I'd shine 


Refrain 2:
      B C#m G#m E F# 
It's o-ver-whelming and
    B C#m G#m E F# 
In absence she defends 


Chorus 2:
 C# 
  On and on 
            B 
and on forever
    E-- x4
she says


Bridge:
      C#m E 
It's all over now 
      C#m A E 
It's all over now 
      C#m A E 
It's all over now
      C#m A E 
It's all over now
          C#m A E 
And It's all over now
      C#m A E 
It's all over now
      C#m A E 
It's all over now
      C#m A E (hold)
It's all over now


Interlude: E-- x8


Chorus 2:
 B 
  On and on 
            A 
and on forever
     D (hold)
she says

Australia Dont Ever Let Her Go Acoustic chords – Satellite Stories

 Standard tuning. play along with the song to get a feel for the strumming pattern. first 
go at this.



 C 
Delorean
 Dm F 
I did best I can, did we
 C 
Delorean
 Dm F 
You said now it's time to leave


                        C F Am 
It's just a year you know
                        C F Am 
I'm back before the snow


                      F Dm Am G 
Don't ever let her go to Australia
                    F C 
I've seen some photos from her camera
                     F Dm Am G 
Don't ever let her go to Australia
                     F C 
I've seen some photos from her camera

 C 
Delorean
 Dm F 
Guess you changed your plan to "B"
 C 
The hardest thing
      Dm F 
to learn Is to lose something you've earned

                      C F Am 
It's just a year you know
                        C F Am 
I'm back before the snow

                      F Dm Am G 
Don't ever let her go to Australia
                    F C 
I've seen some photos from her camera
                     F Dm Am G 
Don't ever let her go to Australia
                     F C 
I've seen some photos from her camera


 F 
We could smile
         Am 
White teeth and our lame boats
        C G F 
Or we could smile inside our raincoats
                 C G 
Do you feel ever scared?


 F 
We could smile
         Am 
White teeth and our lame boats
        C G Dm 
Or we could smile inside our raincoats
                C 
Do you feel ever scared?

Instrumental part:    F Am C G Dm F C G    x 2

                    F Dm Am G 
Don't ever let her go to Australia
                    F C 
I've seen some photos from her camera
                     F Dm Am G 
Don't ever let her go to Australia
                     F C 
I've seen some photos from her camera

Ryan Madani – Her Song Tabs

 e|-------------------------------------------------------------------------------------|
B|-------------------------------------------------------------------------------------|
G|-------------------------------------------------------------------------------------|
D|---4---4---5---4---0---6---6---4---6---7---12---12---11---12---7---9---9---7---9---7-|
A|--0---0---0---0---0---4---4---4---4---4---0----0----0---0----0----7---7---7---7---7--|
D|-0---0---0---0---0---4---4---4---4---4---0----0----0---0----0---7----7---7---7---7---|


Punish Her chords – Bobby Vee

 Punish Her:Bobby Vee.
#20 on BB Hot 100 and #32 on Cash Box on
LIBERTY Records in 1962.

INTRO:
 A Ab A F# 
If she has wronged you, found someone new.
 A F# B E F#m 
But you feel it's not over..here's what you must do.

#1.
 A Db B F#m A D 
Punish her..kill her with kindness..ohhh, buy her red 
 Dm A Dbm 
roses every day..(doo-doot-doo-doot-da-doot.)
       F#m B Bm Dm 
Aaah, punish her with so much affection, that she will 
 A F#m Bm Em A 
cry for the love she threw away.

BRIDGE:
        D E A F#m 
She'll soon rediscover, with tears in her eyes,
      B F#m D E 
that you're the only lover she was born to idolize.

#2.
      A Db F#m A D 
Just punish her..blind her with kisses.....aaah, til she 
                           Dbm F# 
can't see how she let you go..ooo..oh.
              Bm E 
Then whisper darling, darling, darling, I still love 
     A 
you so.

INTERLUDE:
  A F 
(Punish her, punish her..punish her, punish her.)

#3.
 A Bb D Gm7 Bb Eb 
Ahhh, punish her..blind her with kisses.....yeaaah, til she 
                           D G 
can't see how she let you go..ooo..oh.
              Cm Bb Gm7    
Then whisper darling, darling, darling, I still love 
 F Bb    
you so.

OUTRO:
 Bb F Gm7 Bb 
Ooohhhh, punish her..(aahh-ha-haaa)..punish her..(mmmm-hmmm)..
                    Gm Bb 
punish her..(ah-ha-ha)..aaaawwww..punish her..(oh, yeah..)
                    Gm Bb 
punish her(..oh-ho-ho)..punish her..


A sixties smash from Kraziekhat.

Tell Her You Love Her chords – Echosmith

 G G G G G 
Tell her a story
 G D 
Tell her the honest truth
 G 
You treat her better
 G D 
Make sure to see it through


 G                        
Don't be just everything she wants
 G D 
Be everything she needs
 G  
When she says she loves you
 G D 
Tell her you love her too


 Bm G D Asus4 
Oh oh oh oh oh oh [x2]


 G 
Give her a reason
 G G 
A reason to love all you do

 G G 
She'll tell you secrets
 G D 
You'll tell her secrets too
 G 
She'll tell you all her hopes and dreams
 G D 
You'll tell them too
 G 
When she says she loves you
 G D 
Tell her you love her too

 Bm G 
But don't you run away run away
                 D A 
When you get tired
           Bm G 
Cus this will slip away slip away
                 D A 
And start a fire
 Bm G 
That can never be put out
 D A 
Oh hurry time is running out
              Bm G 
But don't you run away run away
 Bm G D 
Before you say
   A Bm G D A 
You love her (oh oh oh [x2])

 G 
When she says she needs you
 G D 
Tell her you need her too
 G 
You tell her clearly
 G D 
Speak what your heart wants you to
 G 
Tell her she's lovely
 G D 
Always tell her the truth
 G  
When she says she loves you
 G D 
Tell her you love her too
 Bm G 
But don't you run away run away
                     D A 
When you get tired
 Bm G 
Cus this will slip away slip away
                 D A 
 And start a fire
 Bm G 
That can never be put out
   D A 
Oh hurry time is running out
 Bm G 
But don't you run away run away
 D          
Before you say
 A Bm G D A 
You love her (oh oh oh [x2])

I Miss Her chords – Jessie J

 I Miss her by Jessie  J



[Verse:]
 G 
It's not fair
 D A Bm 
I'm talking to You upstairs
     G D A 
Are you there?
         G D    
You know I care
 A Bm G D A 
So please don't tell me that this is an empty prayer Oh no

[Pre-Chorus:]
 Em                             
'Cause all she has and all she's lost
   G A 
I wish she could remember
     Em G 
I watch her fade and slip away
        A 
It's hurting more than ever

[Chorus:]
    G D A Bm 
I miss her even though she's still here
         G D    
You need to listen
 A 
Don't let her disappear
                            G D 
I'll give her my forever
           F# Bm A |
If it meant for a day she could really be okay
               G D 
'Cause I miss her
 A 
Even though she's still here

[Verse:]
       G 
Is this pretend?
 D A Bm 
Will she really not know my face?
  G D A 
In the end
         G D    
If You're a friend a friend a friend
 A Bm G D A 
Show me how to heal it when she can't even feel it  Please... show me

[Pre-Chorus:]
 Em                             
'Cause all she has and all she's lost
   G A 
I wish she could remember
     Em G 
I watch her fade and slip away
        A 
It's hurting more than ever

[Chorus:]
    G D A Bm 
I miss her even though she's still here
         G D    
You need to listen
 A 
Don't let her disappear
                            G D 
I'll give her my forever
           F# Bm A |
If it meant for a day she could really be okay
               G D 
'Cause I miss her
 A 
Even though she's still here


[Bridge:]
                          G               
And promise me this
                  F# 
When she goes
                          Bm A 
Everything she sees will set her free
 D 
Thirteen and the colour green
                     G 
Promise me this
                 F# 
That she knows
                Bm A 
That the people that she loves
         E 
Will love her in the skies above

[Chorus:]
    G D A Bm 
I miss her even though she's still here
         G D    
You need to listen
 A 
Don't let her disappear
                            G D 
I'll give her my forever
           F# Bm A |
If it meant for a day she could really be okay
               G D 
'Cause I miss her
 A G D A Bm 
Even though she's still here


                  G D A Bm 
She's still here oh
 G D 
I miss her, miss her miss her
               A Bm 
I just miss her, miss her miss her
    G D A D 
I miss her even though she's stil

Roy Head – Treat Her Right chords

 Treat Her Right:Roy Head And The Traits.
#2 R&B and #2 on BB Hot 100 on BACK BEAT
Records in 1965.

                                        Hey!!
INTRO:  G F  (x4)  C Bb C .. G F G .. D C G F .. E Dbm G ..
       Aw! you're lookin' good, baby.
        C .............................. G D C G 
#1.
 G F G 
I wanna tell you a story, every man oughta know.
 G Gm7 C Eb C Cm G F G 
If you want a little loving....you gotta start real slow.
 G Dm C Bb 
She's gonna love you tonight, now, if you just treat 
     G F G 
her right, now.

#2.
 G F G F G 
Oh, squeeze her real gentle....gotta make her feel good.
 G Bb C F C G F G 
Tell her that you love her....like you know you should.
 Gm7 Bb D C Bb 
Cause if you don't treat her right, she won't love you
   G F G 
tonight.

#3.
 G F G F G F G F G 
If you practice my method.....just as hard as you can.
 G D F C F C Bb C G F G 
You're gonna get a reputation.....as a lovin' man, now.
 F G D F C Bb G F G 
And you'll be glad every night, that you treated her right, now.

INTERLUDE:OUTRO:
 G C G 
Hey-hey-hey-hey!..hey!..hey!..alright!..yeah, yeah!..hey!..hey!
                              D C G 
everybody-alright!..alright! hey!..hey!..hey!
 G F 
Hey-hey-hey-hey!..awww-work it, now, one time..aaaahhhhhhhhhhhh!
 C G D C G 
a little too much, baby, alright!..hey!........


A sixties smash from Kraziekhat.

Let Her Go intro Tabs by Tyler Ward

 E|--17--19--17--15--17--15--------------15------17--19--17--15--17--17--19--17--17---15--|
B|--------------------------17--17--15---------------------------------------------------|
G|---------------------------------------------------------------------------------------|
D|---------------------------------------------------------------------------------------|
A|------------------------------------------15-------------------------------------------|
E|---------------------------------------------------------------------------------------|
||
E|------------------------------------------8-------------------7------------------2-----|
B|------------------1-----------------------8-------------------9------------------3-----|
G|------------------0-----------------------9-------------------9------------------2-----|
D|------------------2-----------------------10------------------9------------------0-----|
A|------------------3-----------------------10------------------7------------------------|
E|------------------------------------------8--------------------------------------------|



E|--17--19--17--15--17--15--------------15------|
B|--------------------------17--17--15----------|
G|----------------------------------------------|
D|----------------------------------------------|
A|-----------------------------------------15---|
E|----------------------------------------------|
||
E|-----------------------------------------3----|
B|------------------1----------------------3----|
G|------------------0----------------------0----|
D|------------------2----------------------0----|
A|------------------3----------------------2----|
E|-----------------------------------------3----|

The Illusion – Did You See Her Eyes Chords

 Did You See Her Eyes:The Illusion.
#32 on BB Hot 100 on STEED Records 
in 1969.

INTRO:  E G .. A G Eb .. G Eb G .. Eb G Eb ..
        Gm Am Em E G Em .. E Em 
       Hey, hey, now!!

#1.
 Em E G E Em 
Well, now here she comes, walking down the street.
 G Em E Em E G E 
Well, now here she comes, walking down the street.

CHORUS:
 G A D E E A G Em 
Did you see her eyes......did you see her eyes?
 D A D B Em 
Did you see her eyeeees......yeah, yeah, yeah, now.


INTERLUDE:  Em E Em E G E 

#2.
 G E Em E 
Well, now here she comes, walking down my street, alright.
 G Em E Em E G A 
Well, now here she comes, ahhhh, she looks so sweet.

CHORUS:
 G A D E E A G Em 
Did you see her eyes......did you see her eyes?
 D A D B G Em 
Did you see her eyeeees......alright!!


CHORUS:
  Em F# E 
(She's so fine)..she can make you feel so good..she can make 
     Em 
you feel so good.
 E F# G A 
She can make you feel so good..if you give her time, she could
 B 
tear your mind.

BRIDGE:
 E Bm E Bb E A E C E A E 
Yaaaa-ya-ya-ya-ya.....aaaahhhhhhhhhhhhh-ahh-ya-ya-ya-ya..
 E A E A E A Em 
Aaaaaaaaaa-ya-ya-ya-ya.....


#3.
 Em E Em E 
Well, now, here she comes, she looks so sweet.
 Em E Em E 
Well, now, here she comes, she looks so fine.
 E G E E G E 
Well, now, here she comes, I'm gonna make her mine.

CHORUS:
 G A G E E A G E 
Did you see her eyes......did you see her eyes?
 E A G Bm B E 
Did you see her eyeeees......hey, hey, hey!!


OUTRO:  Em G E .. G Em F# .. E G Em .. A Em E .. G E G ..(Fade.)


A sixties smash from Kraziekhat.

To Her Door solo Tabs by Paul Kelly

 To Her Door - Paul Kelly (Guitar Solo at 1:43)

e|-----------------|-------------------|----------------------|
B|-----------------|-------------------|----------------------|
G|-----------------|-------------------|----------------------|
D|-----------------|-------------------|----------------------|
A|----------0-2----|-----------0-2-2---|---------------5------|
E|--3-0-3-0--------|-0-3-0-3-0---------|-0-3-0-3-0-5/7---7-5-3|


e|------------------|-----------------|-/10-10-10--\8--8--8---|
B|------------------|-----------8-8---|-/12-12-12--\10-10-10--|
G|------------------|-----------7-7---|-----------------------|
D|------------------|-----------9-9---|-----------------------|
A|----5-5-5-5-------|-----5-7-5-------|-----------------------|
E|-5/7-------7\5-3--|--5-7------------|-----------------------|


e|-\7-7-7-5-3-3--|----3------3-3-3-------|-5--5-5-5-3-3-3--|
B|-\8-8-8-7-5-3--|----3-5-3--5-5-5-5p3-3-|-3--3-3-3-3-5-3--|
G|---------------|-3b4--4-4--4-4-4-4--4--|-----------------|
D|---------------|-----------------------|-----------------|
A|---------------|-----------------------|-----------------|
E|---------------|-----------------------|-----------------|


E|-5-3--3-3---------|----------|
B|-----5------------|----------|
G|----------4-2-0-0-|----------|
D|------------------|----------|
A|------------------|----------|
E|------------------|-6r5-3----|