Tag: holy

Holy Is The Lord Medley chords – Christ Tomlin/Reginald Heber

 Verse 1:
 D G A 
We stand and lift up our hands
         Bm G A 
For the joy of the Lord is our strength
 D G A Bm 
We bow down and worship Him now
     G A 
How great how awesome is He
                 Em/G Em/G 
And together we sing,     everyone sing

Chorus:
             D G A 
Holy is the Lord, God almighty
     Bm G A 
The earth is filled with His glory
             D G A 
Holy is the Lord, God almighty
     Bm G A 
The earth is filled with His glory

Bridge 1:
         D G Em A 
It’s rising up all around
          Bm G Em A  
It’s the anthem of the Lord’s renown
         D G Em A 
It’s rising up all around
          Bm G Em A  
It’s the anthem of the Lord’s renown

         D G Em A 
It’s rising up all around
          Bm G Em A  
It’s the anthem of the Lord’s renown
         D G Em A 
It’s rising up all around
          Bm G Em A  
It’s the anthem of the Lord’s renown

Chorus:
             D G A 
Holy is the Lord, God almighty
     Bm G A 
The earth is filled with His glory
             D G A 
Holy is the Lord, God almighty
     Bm G A 
The earth is filled with His glory

Verse 2:
 D Bm A D 
Holy, Holy, Holy!
 G D 
Lord God Almighty
 A Bm A 
All Thy works shall praise thy name 
               Bm A 
In earth, and sky, and sea.
 D Bm A D 
Holy, Holy, Holy!
 G D 
Merciful and mighty!
 Bm A G D G A D 
God in three persons blessed Trinity!

Verse 3:
 D Bm A D 
Holy, Holy, Holy!
 G D  
All the saints adore Thee,
 A Bm A 
Casting down their golden crowns 
            Bm A 
Around the glassy sea.
 D B A D 
Cherubim, and seraphim
 G D 
Falling down before Thee,
 Bm A G D G A D 
Which wert, and art, and evermore shalt be!

Chorus:
             D G A 
Holy is the Lord, God almighty
     Bm G A 
The earth is filled with His glory
             D G A 
Holy is the Lord, God almighty
     Bm G A 
The earth is filled with His glory

End:
 Bm D A 
Holy, Holy is the Lord almighty
 Bm D A 
Holy, Holy 
 Bm D A 
Holy, Holy 
 Bm D A 
Holy, Holy 
 Bm D A 
Holy, Holy 

O Holy Night chords – David Crowder Band Vsion 2

 David Crowder's guitar is tuned down a semi tone, but then the chord shapes below are used.
Simple finger picking for the most part, but builds up at the end of Verse 2.

Intro:
 C 

Verse 1:
 C F C 
O holy night, the stars are brightly shining,
                         G Am 
It is the night of our dear Saviour’s birth!
 C F C 
Long lay the world in sin and error pining,
            Em B Em 
’Til He appeared and the soul felt its worth.
      G C 
A thrill of hope, the weary world rejoices,
      G C 
For yonder breaks a new and glorious morn.
  
Chorus:
 Am Em Dm Am 
Fall on your knees, O hear the angel voices!
     C G C F C G C 
O n - i - ght div - i - ne, O night when Christ was born!
    G C F C G C 
O night div - i - ne, O night, O night divine!
  
Interlude:
 Am 

Verse 2:
 C F C 
Truly He taught us to love one another;
                          G Am 
His law is love and His Gospel is peace.
 C F C 
Chains He shall break for the slave is our brother
             Em B Em 
And in His Name all oppression shall cease.
  G C 
Hymns of joy in grateful chorus raise we,
      G C 
With all our hearts we praise His holy Name!
  
Chorus:
 Am Em Dm Am 
Christ is the Lord! Then ever, ever praise we,
     C G C F C G C 
His power and gl - o - ry ever more proclaim!
  
Chorus:
 Am Em Dm Am 
Fall on your knees, O hear the angel voices!
     C G C F C G C 
O n - i - ght div - i - ne, O night when Christ was born!
    G C F C G C F C 
O night div - i - ne, O night, O night divine!

Ending:
      F C 
Alleluia, alleluia
      F C 
Alleluia, alleluia
      F C 
Alleluia, alleluia
      F C 
Alleluia, alleluia

Oh Holy Night Tabs – Adolphe Adam

 O Holy Night “Cantique de Noel”
Author: Adolphe Charles Adam
: Markus Didik Naryadi 
                  didiknm

Standard Tuning
Time Signature: 6/8
Key Signature: A Major


*** I found this fingerstyle on youtube & I tried to play this song with my guitar. 
I modified some parts and made it simple to be played. 
This is my first time to transcript a song into a tablature. 
So, please correct me if there were any mistake.....

    
                             O Holy Night
“Cantique de Noel”
                                                            //Repeat
e--------------|--------------|--------------|--------------|--------------|
B-------2------|-------0------|-------2------|-------2------|-2-----2---2--|
G-----2---2----|-----1---1----|-----2---2----|-----2---2----|-----2---2----|
D---2-------2--|---2-------2--|---2-------2--|---2-------2--|---2-------2--|
A-0------------|--------------|-0------------|-0------------|-0------------|
E--------------|-0------------|--------------|--------------|--------------|
 
e-0---------0--|-2-----2---2--|-5------------|-0-----0------|--------------|
B-------2------|-----3---3----|-------2------|-------2-2-0--|-------2---3--|
G-----2---2----|---2-------2--|-----2---2----|-----2---2----|-2---2---2----|
D---2-------2--|--------------|---2-------2--|---2-------2--|---2-------2--|
A-0------------|-5------------|-0------------|-0------------|-0------------|
E--------------|--------------|--------------|--------------|--------------|


e-0-----------|---------------|--------------|
B-------3---0-|-------2-------|-------2------|
G-----1---1---|-2---2---2-----|-----2---2----|
D---2-------2-|---2-------2---|---2-------2--|
A-------------|-0-------------|-0------------|
E-0-----------|---------------|--------------|



e--------------|-0---------0--|-2-----2---2--|-5------------|-0-----0------|
B-2-----2---2--|-------2------|-----3---3----|-------2------|---------4----|
G-----2---2----|-----2---2----|---2-------2--|-----2---2----|-----------6--|
D---2-------2--|---2-------2--|--------------|---4-------4--|---4-6--------|
A-0------------|-0------------|-5------------|--------------|-------3------|
E--------------|--------------|--------------|-2------------|-4------------|


e-4------------|-4-----7p5---4-|--------------|-----------0--|-0-----2------|
B-------5---7--|---------------|-------6------|-------6------|-------0------|
G-----6---6----|-----4---------|-----6---6----|-----6---6----|-----1---1----|
D---6-------6--|---6-----------|---6-------6--|---6-------6--|---2-------2--|
A-4------------|---------------|--------------|--------------|--------------|
E--------------|-4-------------|-9------------|-9------------|-0------------|


e-------0-------|-2-----5------|-2-----0---0--|-0-----2------|-------0------|
B-0-----0-------|-----5-2---2--|-------2------|-------0------|-0-----0------|
G-----1---1-----|-----2---2----|-----2---2----|-----1---1----|-----1---1----|
D---2-------2---|---2-------2--|---2-------2--|---2-------2--|---2-------2--|
A---------------|-0------------|--------------|--------------|--------------|
E-0-------------|--------------|-0------------|-0------------|-0------------|


e-2-----5-------|-0-------------|-5------------|-------4---2--|-4------------|
B-----5-2---2---|---------------|-------2------|-------2------|-------5------|
G-----2---2-----|-----2-----2---|-----2---2----|-----2---2----|-----6---6----|
D---2-------2---|---2-----2-----|---4-------4--|---4-------4--|---6-------6--|
A-0-------------|-0-------------|--------------|--------------|-4------------|
E---------------|-------4-------|-2------------|-2------------|--------------|

e-------4-------|-7-------------|-----2-2---2--|-5------------|-------5------|
B-------5-------|-------7-------|-------3------|-------2------|--------------|
G-----6---6-----|-----7---7-----|-----4---4----|-----2---2----|-----2-----2--|
D---6-------6---|---9-------9---|---4-------4--|---4-------4--|---4----

She Is A Holy Grail chords – Superdrag

 Superdrag - She is a holy grail

Intro
 Em E7 Am 
Sweet Darjeeling dream
 E7   
Of sugar cubes and cream
 Am 
In a bridal gown
 E7 
Inhaling nicotine

 F 
Doesn't everybody know
 Em E7 
She's quite a little queen
 F 
Everywhere I seem to go
 Em E7 
I find the masses trampling a dream
 Am Dm E 
Trampling a dream
 Am Dm E 
Trampling a dream

 Am 
When my fever broke
 E7 
In vapor trailing smoke
 Am 
In a bridal veil
 E7 
She is a Holy Grail

 F 
Doesn't everybody know
 Em E7 
She's quite a little queen
 F 
Everywhere I seem to go
 Em E7 
I find the masses trampling a dream

 Am Dm E7 
Trampling a dream
 Am Dm E7 
Trampling a dream

Solo with  Am E7 Dm 

*From memory, hope it helps.

Uram Szent Vagy – Your Are Holy chords – Michael W Smith

 [Intro]
 E A F#m H 

[Vers]
         E 
Uram, szent vagy (Uram szent vagy)
       A 
Hatalmas vagy (Hatalmas vagy)
         F#m 
Te vagy méltó (Te vagy méltó)
         H 
A dicséretre (a dicséretre)
        E 
Veled járok (Veled járok)
        A 
Rád tekintek (Rád tekintek)
       F#m 
és szeretlek (és szeretlek)
     H E H E 
Minden napon (minden napon)

[Kórus]
          A H 
Új dalt zengek és áldom
    C#m G#m 
Királyom, ki méltó
          A H 
Csak Rá nézek, Őt várom
     C#m G#m 
Leborulva imádom

            A H E 
Te vagy a Megváltóm, és az életem tiéd

O Holy Night chords – Melanie Safka

 Melanie Safka - O Holy Night


CAPO: 6TH Fret


INTRO:  C C F C 
O holy night, the stars are brightly shining
                        G C 
It is the night of our dear saviour's birth
                       F C 
Long lay the world in sin and error pining
           Em B7 Em 
'Til he appeared and the soul felt its worth
   G C             
A thrill of hope, the weary world rejoices
     G C Am 
For yonder breaks a new and glorious morn


CHORUS:
              Em        
Fall on your knees
   Dm Am 
O hear the angel voices
   C G C      
O night divine
 F C G7 C 
O O O night when Christ was born
   G7    
O night
   C F C G7 
O holy night
           C 
O night divine


 C F C 
Truly, he taught us to love one another
                         G7 C 
His law is love and his gospel is peace
                                F C 
Chains shall he break, for the slave is our brother
            Em B7 Em 
And in his name, all oppression shall cease
   G C             
A thrill of hope, the weary world rejoices
     G C Am 
For yonder breaks a new and glorious morn


CHORUS:
              Em        
Fall on your knees
   Dm Am 
O hear the angel voices
   C G C      
O night divine
 F C G7 C 
O O  night when Christ was born
   G7    
O night
   C F C G7 
O holy night
           C 
O night divine

The Holy Tightrope Tabs – The Wytches

 Song: The Holy Tightrope
Artist: The Wytches
 Wire Fame Mattress
=============================
http://www.thewytches.com
http://thewytches.tumblr.com
http://instagram.com/thewytches
http://thewytches.bandcamp.com
https://www.facebook.com/thewytches

http://www.youtube.com/user/witchesmovies
https://twitter.com/thewytches
=============================



Tuning: Half Step Down


        =Intro=

00:00   e----------------|-----------------|-----------------|------------------|
        B----8-----0---0-|-----8-----0---0-|-----8-----0---0-|-------0-/8-7-5-4-|
        G------9-8---5---|-/9----9-8---5---|-/9----9-8---5---|-4-4-5------------|
        D----------------|-----------------|-----------------|------------------|
        A----------------|-----------------|-----------------|------------------|
        E-0--------------|-----------------|-----------------|------------------|

        e----------------|-----------------|-----------------|------------------|
        B----8-----0---0-|-----8-----0---0-|----8------0---0-|-------0-/8-7-5-4-|
        G------9-8---5---|-/9----9-8---5---|-/9----9-8---5---|-4-4-5------------|
        D----------------|-----------------|-----------------|------------------|
        A----------------|-----------------|-----------------|------------------|
        E--0-------------|-----------------|-----------------|------------------|


        =Verse=

00:19   e-------------------|-----------------------------|-------------------|-----------------------------|
        B-------------------|-----------------------------|-------------------|-----------------------------|
        G-------------------|-----------------------------|-------------------|-----------------------------|
        D-------------------|-----------------------------|-------------------|-----------------------------|
        A-------------------|-----------------------------|-------------------|-----------------------------|
        E-0-2-/-7--------7\-|-0--2-/-7--7-7-3--3-/-8--8-8-|-0-2-/-7--------7\-|-0--2-/-7--7-7-3--3-/-8--8-8-|


        =Chorus=

00:38   e------------------|----------------|----------------------------|
        B------------------|----------------|----------------------------|
        G------------------|----------------|----------------------------|
        D------------------|----------------|----------------------------|
        A-7----------------|-7-7------------|-7--------------------------|
        E----8-/-11-\-7-7--|-----8-/-11\-7--|----8-/-11-\-7--3--3--8--8--|

        e------------------|----------------|----------------------------|
        B------------------|----------------|----------------------------|
        G------------------|----------------|----------------------------|
        D------------------|----------------|----------------------------|
        A-7----------------|-7-7------------|-7--------------------------|
        E----8-/-11-\-7-7--|-----8-/-11\-7--|----8-/-11-\-7--3-----8--8--|


        =Middle=

00:56   e----------------|-----------------|-----------------|-----------------|
        B----8-----0---0-|-----8-----0---0-|-----8-----0---0-|---------7-7-7-7-|
        G------9-8---5---|-/9----9-8---5---|-/9----9-8---5---|-4-4-4-4/8-8-8-8-|
        D----------------|-----------------|-----------------|-----------------|
        A----------------|-----------------|-----------------|-----------------|
        E-0--------------|-----------------|-----------------|-----------------|

        e----------------|-----------------|-----------------|------------------|
        B----8-----0---0-|-----8-----0---0-|----8------0---0-|------------------|
        G------9-8---5---|-/9----9-8---5---|-/9----9-8---5---|-4-4-4-4-2---4-4--|
        D----------------|-----------------|-----------------|------------------|
        A----------------|-----------------|-----------------|------------------|
        E--0-------------|-----------------|---------

O Holy Night chords – Melanie

 Melanie - O Holy Night


CAPO: 6TH Fret


INTRO:  C C F C 
O holy night, the stars are brightly shining
                        G C 
It is the night of our dear saviour's birth
                       F C 
Long lay the world in sin and error pining
           Em B7 Em 
'Til he appeared and the soul felt its worth
   G C             
A thrill of hope, the weary world rejoices
     G C Am 
For yonder breaks a new and glorious morn


CHORUS:
              Em        
Fall on your knees
   Dm Am 
O hear the angel voices
   C G C      
O night divine
 F C G7 C 
O O O night when Christ was born
   G7    
O night
   C F C G7 
O holy night
           C 
O night divine


 C F C 
Truly, he taught us to love one another
                         G7 C 
His law is love and his gospel is peace
                                F C 
Chains shall he break, for the slave is our brother
            Em B7 Em 
And in his name, all oppression shall cease
   G C             
A thrill of hope, the weary world rejoices
     G C Am 
For yonder breaks a new and glorious morn


CHORUS:
              Em        
Fall on your knees
   Dm Am 
O hear the angel voices
   C G C      
O night divine
 F C G7 C 
O O  night when Christ was born
   G7    
O night
   C F C G7 
O holy night
           C 
O night divine

Holy chords – Eddie James

 Chorus:
         D#m C#2 
You are Holy, holy, holy, Holy, holy, holy,
 B C# Do7 
Holy, holy, holy, Holy Lord
         D#m C#2 
You are Holy, holy, holy, Holy, holy, holy
     B G# C# A#7/D 
The whole earth is full of Your glory
*Worthy *Righteous *Lovely

Verse1:
 D#m C#2 B C# Do7 
I see You high and lifted up beyond the skies,
                                             ( Holy, holy, holy, Holy Lord)
 D#m C#2 B G# C# A#7/D 
I see Your throne as the train of your robe fills the temple
                                           ( The whole earth is full of Your glory)
      D#m C#2 B C# Do7 
Your train so majestic for it shows every victory You've won for me 
                                                                 ( Holy, holy, holy, Holy Lord)
           D#m C#2 
You're my conquering King, the One who fights for me,
      B G# C# A#7/D 
Even death is swallowed up in victory because

Verse2:
Faithful and true, in righteousness You judge and make war
Your eyes a flaming fire, from Your mouth comes a sharp two-edged sword
On Your vesture dipped in blood is written King of Kings and Lord of Lords
To You be all the blessing, dominion, and power now and forever amen

Bridge:
 D#m 
Holy, worthy, righteous, and lovely
 D#m C# 
Faithful, Jehovah, Yeshua, Messiah
 D#m 
Creator, Redeemer, Restorer, my Healer
     B G# C# A#7/D 
The whole earth is full of Your glory

P.S. The verses, because of the way the chords and vocals work together, were difficult to write down; 
so in other words, you kind of have to go with the flow of the song. If it helps the verses are played 
the same way as the chorus. Oh and the small 'o' means diminished.

Holy Shadow – Untitled Garden Growing chords

 The whole song is E F#m A E except for one change in the chorus.

    E F#m A E  
So many things to do when I woke up today that I went back to bed. 
    E F#m A E 
And so many things I still want to change but I got high instead. 
        E F#m A E 
And I was born in a hospital but I was baptized by the sea 
        E F#m A E         
And I have seen the things that are destroying you And I'm gonna try not to let them destroy me. 

Chorus: 
    E F#m A E 
Because I once was broken but now I am whole 
   E F# ,             A E 
And the universe, well, it's forgiven me for all those things I stole
       B A 
And there's a garden growing when all of my blessings get old.
     
   E F#m A E 
The wild is my religion and this garden is my practice 
    E F#m A E  
So many things I have yet to learn and so many things I have yet to give.
    E F#m A E 
But they'll still find my cell phone snapped into two pieces too late
    E F#m A E 
Sitting softly in the sand at the bottom of my beloved Long Lake.

 (chorus)
   
    E F#m A E 
And there's this girl I love, she knows what I've done but she lets me sleep in her bed.
    E F#m A E 
She gives me the peace I could never find in any of those books I read.
    E F#m A E 
And I could walk backwards from Jerusalem and still not know where I've been
    E F#m A E 
Or go back to the time before I lost my mind and realized I'm okay with it.

 (chorus)

Holy Love chords – Andy Park

 Not sure if it's accurate but this is how we play it our church.

Verse 1:
 D Bm7 
Many waters cannot quench your love, rivers cannot overwhelm it
 Esus E Esus E A 
Oceans of fear cannot conceal your love for me
 D Bm7 
Many waters cannot quench your love, rivers cannot overwhelm it
 Esus E Esus E A 
Oceans of fear cannot conceal your love for me
       E 
Your love for me

Chorus:
 D A D A E D E 
Holy love, flow in me, fill me up like the deepest sea
        D A D A 
Like a crashing wave pouring over me, holy love flow in me

Verse 2:
 D Bm7 
Many sorrows cannot quench your love, darkness cannot overwhelm it
 Esus E E A 
I will not fear, your love is here to comfort me
 D Bm7 
Many sorrows cannot quench your love, darkness cannot overwhelm it
 Esus E E A 
I will not fear, your love is here to comfort me
     E 
You comfort me

Bridge:
 A D 
When I find you I find healing
 E A 
When I find you I find peace
                            D 
And I know that there's no river so wide
    E D 
No mountain so high, no ocean so deep
                Esus E D E 
That you can't part the sea

Holy Is The Lord chords – Praise And Worship

 G C D 
 We stand and lift up our hands
           Em C D 
 for the joy of the Lord is our strength
  G C D 
 We bow down and worship Him now
       Em C D 
 How great how awesome is He

  Bridge
                   A 
 And together we sing

  Chorus
               G C D 
 Holy is the Lord God Almighty
        Em C D 
 the earth is filled with His glory
               G C D 
 Holy is the Lord God Almighty
        Em C D 
 the earth is filled with His glory
        Em C D 
 the earth is filled with his glory

  Verse 
  Bridge 
  Chorus

  G D   
 It's rising up all around
             F C 
 It's the anthem of the Lord's renown
  (2x)
                   A 
 And together we sing 
            C 
 Everyone sing

 Chorus

You Are Holy chords – Praise And Worship V2

 erse: [  D G  ] [  Bm  -  A  -  G  ]
Grow our faith Lord
When our eyes can't see
That you don't change Lord
You will ever be

Pre-Chorus: [  A Bm G  ] x2
All glory and honor and praise
To the king who forever reigns

Chorus: [  A Bm G  ] [  A Bm G D  ]
Holy, You are Holy
Worthy, You are Worthy

Verse
Pre-chorus
Chorus x2

Bridge:
            G D 
Without an end, You are the same
            G Bm 
Without an end, God you remain
           G D/F# 
Above all thrones, Above every name
            Bm  -  A  -  G 
Without an end, God you remain

Chorus x2

Jealous Daddys Love Song chords – The Holy Modal Rounders

 Jealous Daddy's Love Song - Antonia Stampfel

  G C G 
So now I'm leaving this world of sin
                          D G 
One pretty woman with a lot of you men
                  Em 
I'm telling you boys
            C D G 
Don't you monkey with my widow when I'm gone

I had my life, and I had my fun
I had more loving than you boys ever done
I'm telling you boys
Don't you monkey with my widow when I'm gone
No monkeyin'

My girl was created just to be my bride
No other man can keep her satisfied
I'm telling you boys
Don't you monkey with my widow when I'm gone

I know you can't wait until I'm dead
To try to drag her off to your waterbed
I'm telling you boys
Don't you monkey with my widow when I'm gone

She'll just throw you out, an' if she’s feeling bluer
She'll think about the times that I used to screw 'er
I'm telling you boys
Don't you monkey with my widow when I'm gone

Well, that girl's got class, and a temper, too
Well, she can make a monkey outta all o' you
I'm telling you boys
Don't you monkey with my widow when I'm gone

And if any o' you punks try to misbehave
I'll haunt your asses to an early grave
I'm telling you, telling you, telling you boys
Don't you monkey with my widow when I'm gone

'Cos I'm telling you, telling you, telling you boys
Don't you monkey with my widow when I'm gone

Come Holy Spirit chords – Praise And Worship

 COME HOLY SPIRIT

                        D Em 
Come Holy Spirit, we need you
                         A7 D 
Come Holy Spirit, we pray
                                 D7 G - Gm 
Come with Your strength and Your power
                       D A D  -  A 
Come in your own special way

                        D Em                   
Come like a spring in the desert
                           A D 
Come to the weary of souls
                                   D7 G - Gm 
Lord, let your sweet healing power
                        D A D  –  A  
Touch us and make us whole

                        D Em 
Glory be to the Father,
                           A D 
Glory be to the Son
                                 D7 G - Gm 
Glory be to the Spirit
                         D A7 D 
Now and forever, Amen.

Holy Knights – Under The Light Of The Moon Tabs

 Holy Kinghts-Under The Light Of The Moon
----------------------------------------


e|-----------------|
B|-----------------|
G|-----------------|
D|-9-9-9-99-7-7-4--|
A|-7-7-7-77-5-5-2--|
E|-----------------|


e|--------------------------------------------------------------------------|
B|--------------------------------------------------------------------------|
G|--------------------------------------------------------------------------|
D|--------4-7-5-4-5---------4-7-5-4-5-------4-5-4---------------------------|
A|-7-777-------------7-777------------5-555-------7-5----------9-10-9-7-----|
E|-------------------------------------------------------7-777----------10--|
     ...               ...              ...                ...


e|--------------------------------------|
B|--------------------------------------|
G|--------------------------------------|
D|-9-------7--4--5-7--9-------7-----5---|
A|-7-777-7-5--2--3-5--7-777-7-5--7--3-5-|
E|-------------------------------5----3-|
     ... .              ... .



e|-----------------------------------------|
B|-----------------------------------------|
G|-----------------------------------------|
D|-9--5---7--4h5p4-----9--12-7-5--4h5p4----|
A|-7--3-5-5--------5---7--10-5-3--------5--|
E|------3----------------------------------|


Chorus:
e|------------------------------------------------------|
B|------------------------------------------------------|
G|------------------------------------------------------|
D|-5-5-55---5-3-------6---5-5-55---5-3-------6---5-5-55-|
A|-3-3-33-3-3-1-3-4-3-4-6-3-3-33-3-3-1-3-4-3-4-6-3-3-33-|
E|--------1---------1---4--------1---------1---4--------|



solo rhytm:

e|---------------------------------------|
B|---------------------------------------|
G|---------------------------------------|
D|--9-----------7------------5-----------|
A|--7-77777..---5-55555..----3-33333..---|
E|---------------------------------------|
      .....       .....        .....



e|------------------------------------------------------|
B|------------------------------------------------------|
G|------------------------------------------------------|
D|--9-----------7------------5----------9----------7--4-|
A|--7-77777..---5-55555..----3-33333..--7-77777..--5--2-|
E|------------------------------------------------------|
      .....       .....        .....      .....


e|--------------------------------------------|
B|--------------------------------------------|
G|--------------------------------------------|
D|---6-7-9-11----6----6----4-6-7-9-----4----4-|
A|-4-4-5-7-9-9-7-4--4-4--2-2-3-5-7-7-5-2--2-2-|
E|-2---------7-5----2----0---------5-3----0---|


e|--------------------------------------------|
B|--------------------------------------------|
G|--------------------------------------------|
D|---6-7-9-11----6----6----4-6-7-9-2---4----4-|
A|-4-4-5-7-9-9-7-4--4-4--2-2-3-5-7-0-5-2--2-2-|
E|-2---------7-5----2----0-----------3----0---|



End:
e|-------------------------|
B|-------------------------|
G|------5-6-5-3------------|
D|-5-5----------6-5-3-2-3~-|
A|-3-3---------------------|
E|-------------------------|

Holy Light chords – Phil Wickham

 Intro:  Bb 

Verse 1:
 Bb C 
We have come, and now we will wait
          Eb F 
For Your love to move, for Your light to break

Start a movement here
As we call Your Name
Let Your glory fall
Like a holy rain

Pre-chorus:
 Gm 
Dead arise, hearts be awakened
 F 
In this life, earth will be shaken
 Eb 
Oh, Oh, yeah!

Chorus 1: 
   Chorus 1 riff: Bb-C Gm-F (listen to the timing)
 Eb 
God who reigns over earth and sky
                                    Chorus 1 riff
Flood this world with Your holy light
 Eb 
Start a fire that will never die
                                    Chorus 1 riff
Flood this world with Your holy light

Verse 2:
Every knee will bow
Every eye will see
Everyone will shout
Jesus Christ is King

Pre-chorus 2:
Slave run free
Chains be broken
Darkness flee
Eyes be open
Oh, oh, yeah, yeah!

Chorus:

Tag: 
 F Eb Bb 
   Holy light - shine Your light
 Eb C 
      There's fire in our eye
              Eb Bb 
It's burning bright for You

Tag 2:  Bb - C Gm - F  (same as chorus)
 Eb 
Bring these dead bones back to life
Flood this world with light

Final Chorus: 
      Final chorus riff:  Bb - C/A Gm - F  (same timing)
 Eb 
God who reigns over earth and sky
                                    Chorus 1 riff
Flood this world with Your holy light
Start a fire that will never die
                                    Chorus 1 riff
Flood this world with Your holy light
                                    Chorus 1 riff
Flood this world with Your holy light 

Outro:  Eb

Holy Holy Light chords – Phil Wickham

 Holy Light  Phil Wickham 
This version is in the Key of A, just for the sake of my vocal range. 
Awesome song, God bless

 A 
We have come
 E 
And now we will wait
 D 
For Your love to move
 E 
For Your light to break
 A 
Start a movement here
 E 
As we call Your Name
 D 
Let Your glory fall
 E 
Like a holy rain
Pre Chorus: 
 F#m 
Dead arise
Hearts be awakened
 E 
In this life
Earth will be shaken
 D 
Oh, Oh, yeah!
Instumental:  A E F#m E 
Chorus 2: 
 D 
God who reigns over earth and sky
Flood this world with Your holy light
Instumental:  A E F#m E D 
Start a fire that will never die
Flood this world with Your holy light
PAUSE
 A 
Every knee will bow
 E 
Every eye will see
 D 
Everyone will shout
 E 
Jesus Christ is King

 F#m 
Slave run free
Chains be broken
 E 
Darkness flee
Eyes be open
 D 
Oh, oh, yeah, yeah!
Instumental:  A E F#m E 
Chorus 2: 
 D 
God who reigns over earth and sky
Flood this world with Your holy light
Instumental:  A E F#m E D 
Start a fire that will never die
Flood this world with Your holy 
              E D 
light    Oh lord yea!!!
 A 
shine Your light!!
Instrumental:  A D 
There's fire in our eye
 E A 
It's burning bright for You   (PAUSE) 
 D 
Bring these dead bones back to life
Flood this world with light
Instumental:  A E F#m E D 
God who reigns over earth and sky
Flood this world with Your holy light
Instumental:  A E F#m E D 
Start a fire that will never die
Flood this world with Your holy light
Instumental:  A E F#m E 
Flood this world with Your holy light
Instumental:  A E F#m E

Come On Rain chords – Steve Holy

 Intro:  B B G#m 
Come on rain, pour on down, flood that runway, shut it down
           E B F# B 
She's in Dallas, waiting on a plane, don't let her leave,  come on rain

     B E B G#m 
Unleash your fury, fill the sky, let your clouds explode, go on and cry
       E F# B E  
Your tears of mercy, give me time, unlock your winds and let 'em blow
           G#m C# 
Let your lightning strike, your thunder roll
         E F# B 
Heaven help me stop that plane, come on rain

        B G#m 
Don't let your storm clouds break, like my heart if I'm too late
      E B F# B 
One hour is all I'm asking for, come on rain,  let it pour

     B E B G#m 
Unleash your fury, fill the sky, let your clouds explode, go on and cry
       E F# B E  
Your tears of mercy, give me time, unlock your winds and let 'em blow
           G#m C# 
Let your lightning strike, your thunder roll
         E F# B 
Heaven help me stop that plane, come on rain

     G#m E B 
Now here you come, you heard my prayer, give it all you've got
                             F# 
She's all I've got and I'm almost there

     B E B G#m 
Unleash your fury, fill the sky, let your clouds explode, go on and cry
       E F# B E 
Your tears of mercy, give me time, unlock your winds and let 'em blow
           G#m C# 
Let your lightning strike, your thunder roll
         E F# B G#m 
Heaven help me stop that plane, come on rain
         E F# B G#m 
Heaven help me stop that plane, come on rain
 E F# B G#m E F# B G#m E F# B G#m E F# B 
    Come on rain,     come on rain,     come on rain

Holy Grail chords – Justin Timberlake V2

 ------------------------------HOLY GRAIL------------------------------------
Its my first Tab i made, and i think im pretty sure this is the right chords
amazing song by JTimberlake ft. Jay-z
CAPO on 5th


Verse 1: [Justin Timberlake]  Am C G F Am C 
 You take the clothes off my back
              G 
 And I let you
                                    F 
 You steal the food right out of my mouth
 And I watch you eat it
  Am C 
 I still don't know why
                      G F 
 Why I love you so much, Ohh
 
 You curse my name
 In spite to put me to shame
 Have my laundry in the streets
 Dirty or clean
 Give it up for fame
 But I still don't know why
 Why our love is so much, Yeah

[Chorus]
      C 
 And Baby
                      G 
 It's amazing I'm in this Maze with you
                         Am 
 I just cant crack your code
                           F 
 One day you screaming you love me loud
  G                     
 The next day you're so cold
  C G 
 One day you here, one day you there, one day you care
             Am 
 You're so unfair
         F 
 Sipping from the cups
          G 
 Till it runneth over, Holy Grail

[Verse 2: Jay-Z]
  Am C 
 Blue told me remind you niggas
  G F 
 Fuck that shit y'all talk about
                  Am C G 
 I'm the nigga, uh caught up in all these lights and cameras, uh
   F 
 But look what that shit did to Hammer, uh

 God damnit it I like it
 The bright lights is enticing
 But look what it did to Tyson
 All that money in one night
 30 mill for one fight
 But soon as all the money blows, all the pigeons take flight
 Fuck the fame, keep cheating on me
 What I do, I took her back, fool me twice
 That's my bad, I cant even blame her for that
 Enough to make me wanna murder, Momma please just get my bail
 I know nobody to blame
 Kurt Cobain, I did it to myself
  Am C G 
 And we all just entertainers
     F Am             
 And were stupid, and contagious
   C G F 
 And we all just entertainers

[Chorus: Justin Timberlake]
  C 
 And Baby
                      G 
 It's amazing I'm in this Maze with you
                         Am 
 I just cant crack your code
                           F 
 One day you screaming you love me loud
  G                     
 The next day you're so cold
  C G 
 One day you here, one day you there, one day you care
             Am 
 You're so unfair
         F 
 Sipping from the cups
          G 
 Till it runneth over, Holy Grail

[Verse 3: Jay-Z]
 Now I got tattoos on my body
 Psycho bitches in my lobby
 I got haters in the paper
 Photo shoots with paparazzi
 Can't even take my daughter for a walk
 See them by the corner store
 I feel like I'm cornered off
 Enough is enough
 I'm calling this off
 Who the fuck I'm kidding though?
 Im getting high
 Sitting low
 Sliding by
 In that big body
 Curtains all in my window
 This fame hurts
 But this chain works
 I think back
 You asked the same person
 If this is all you had to deal with
 Nigga deal with
 It, this shit aint work
 This light work
 Camera snapping, my eyes hurt
 Niggas dying back where I was birthed
 Fuck your iris and IRS
 Get the hell up off of your high horse
 You got the shit that niggas die for
 Dry yours
 Why you mad
 Take the good with the bad
 Dont throw t