Tag: Intro Tab

Point Of View Tabs by Dad

 POINT OF VIEW by D.A.D


The intro-tab is simplified to make it less cluttered. Listen to the album for the extra strokes


Intro:

   B5
E|------------------------------------------------------|
B|------------------------------------------------------|
G|-----------------4-4---4-2--2-4---4-4---4-2--2-4------|
D|-----------------4-4---4-2--2-4---4-4---4-2--2-4------|
A|-2-2-2-2-2-2-2-2----------------------------------2-4-|
E|------------------------------------------------------|

   D       E         Bm        D       E         Bm
E|-------|---------|---------|-------|---------|---------|
B|-------|---------|---------|-------|---------|---------|
G|-------|---------|---------|-------|---------|---------|
D|-------|---------|---------|-------|---------|---------|
A|-5---5-|-4---2-4-|-5---2-4-|-5---5-|-4---4-2-|-2---2-4-|
E|-------|---------|---------|-------|---------|---------|

   D             F#m     A             E
E|-------------|-------|-------------|---------|
B|-------------|-------|-------------|---------|
G|-------------|-------|-------------|---------|
D|-------------|-------|-------------|---------|
A|-5---5-4-2-4-|-4---0-|-4---4-2-0-2-|-2---2-4-|
E|-------------|-------------------------------|

   Bm      E       F#m
E|-------|-------|-------------|
B|-------|-------|-------------|
G|-------|-------|-------------|
D|-------|-------|-------------|
A|-5---5-|-4---4-|-----0-2-----|
E|-------|-------|-2-------2---|



D                   A                    F#m
   Yeah, you like a man when his mind is strong
D                    A                   Bm
   When his ego's so high he couldn't be wrong
D                 A                          F#m
   And you like a man when he's right at the top
D                  A                            Bm
   When his ego is growing and it don't seem to stop

        D       E                   Bm
See I'd like to share your point of view
   D            E       Bm
As long as it's my view too
D              F#m    A                      E
Can't win on a comprise I'd rather loose on my own
         D            E                  F#m
'Cause I feel kind of good when I'm all alone

D                   A                         F#m
   And you play the games by the book and the rules
D                A                         Bm
   See I play'em backwards - let's see who lose
D                             A                   F#m
   Yeah, you don't go for the man, you go for his balls
D                   A                     Bm
   So let's see who stands, let's see who falls

          D       E                   Bm
Yeah, I'd like to share your point of view
   D            E       Bm
As long as it's my view too
D              F#m     A                     E
Can't win on a comprise I'd rather loose on my own
         D            E                  F#m
'Cause I feel kind of good when I'm all alone
         D      E                   F#m
And if I take a stand it will be my own - And take it yeah!


|D| - |A| - |F#m| - |F#m|
|D| - |A| - |Bm| - |Bm|
|D| - |A| - |F#m| - |F#m|
|D| - |A| - |B5| - |B5|

B5
Take a look in these eyes
Do they look sincere?
Do you read my lips?
Do I make it clear? Bye bye so long, I don't want you here...

        D        E                   Bm
Yeah, I tried to share your points of view
       D         E            Bm
If not all, then maybe just a few
D                F#m       A                     E
Couldn't win on a comprise I'd rather loose on my own
         D            E                  F#m
'Cause I feel kind of good when I'm all alone
         D      E                 F#m
And if I take a stand it'll be my own
              D
Get out of my heart,
       E
and my mind,
       F#m
and my home

Ordinary Love chords – U2 V4

 U2 - Ordinary Love


Hi  this should be the version played by U2 in a tv show.
You can also play it with a capo on 4th freet with these chords: (Am-Em-Am-D)
I hope you will appreciate it ;)

Luca

Intro :  C#m G#m B F#  (x3)


INTRO TAB

            C#m G#m B F# 
e-------------------|------------------|---------------------|------------------------------|
B----------5----5---|-------4------4---|----------4------4---|---------2-------2------------|
G--------6----------|-----4------------|-------4-------------|------3-----------------------|
D-------------------|------------------|---------------------|------------------------------|
A----4-------4------|------------------|-2-----------2-------|------------------------------|
E-------------------|-4--------4-------|---------------------|--2-----------2---------------|

Verse 1:
 C#m G#m 
The sea wants to kiss the golden shore
 B F# 
The sunlight warms your skin
 C#m G#m 
All the beauty that's been lost before
 B F# 
Wants to find us again

Verse 2:
 C#m G#m 
I can't fight you anymore
 B F# 
It's you I'm fighting for
 C#m G#m 
The sea throws rock together
     C#m F# 
But time leaves us polished stones

Chorus:
 C#m G#m 
We can't fall any further
 B F# 
If we can't feel ordinary love
 C#m G#m 
We cannot reach any higher
 B F# 
If we can't deal with ordinary love

Bridge :  C#m G#m B F#  (x2)

Verse 3:
 C#m G#m 
Birds fly high in the summer sky
 B F# 
And rest on the breeze
 C#m G#m 
The same wind will take care of you and
 B F# 
I will build our house in the trees

Verse 4:
 C#m G#m 
Your heart is on my sleeve
 B F# 
Did you put there with a magic marker
 C#m G#m 
For years I would believe
 B F# 
That the world couldn't wash it away

Chorus

Solo :  C#m G#m B F#  (x2)

Verse 5:
 C#m G#m 
Are we tough enough
 B F# 
For ordinary love

Solo :  C#m G#m B F#  (x2)

Chorus (x2)

Mga Pangako Mo intro Tabs by Faith Music Manila

 This is the intro Tab Of Faith Music Manila song " Mga Pangako Mo"
i hope you enjoy


E|----9–8--------9-8--------–9-8----------------------|
B|--9--9---9--11-–9----–9--11---9-----9–11-9-8-9-8----|
G|-8--8----–8--8--8----–8--–8---8----------10-8-------|
D|----------------------------------------------------|
A|----------------------------------------------------|
E|----------------------------------------------------|

Rivers Of Babylon intro Tabs by Jimmy Cliff

 Intro Tab for "Rivers of Babylon" in Jimmy Cliff Style.

Standard Tuning: EADGBE, No Capo

e:------------------------------------------------------0--0--0--3---|
B:------------------------------------------------------5--4--2--3---|
G:------------------------------------------------------5--4--2--0---|
D:------------------------------------------------------5--4--2--0---|
A:--0-0--3--4--5--7----0--0--3--5--7b---7-7--9-9-7------0--0--0--2---|
E:--------------------------------------------------7---0--0--0--3---|

Have Fun, guitarzoomer 2013

American Chords – Stone Cold Fox

 -----------------------------------------------------------------------------
                             "American" - Stone Cold Fox
-----------------------------------------------------------------------------
Tabbed by: obedindie

Tuning: standard

INTRO TAB
e|-2-0------2-0--------2-------2-------2-------2-------|
A|-----3-0------3-0-----3-0-----3-0-----3-0-----3-0----|
D|------------- -----0-------0-------0-------0---------|
G|-----------------------------------------------------|
B|-----------------------------------------------------|
A|-----------------------------------------------------|
Repeat x2
(see bottom for notes on additional chords)


American by Stone Cold Fox
Chords:

 D G 
Inside my house we had forgotten now 
 D G 
Inside my house we had forgotten how 
      Bm 
To live in the country with three white stones 
    G 
Surrounding a flag of branches and bones 
       Bm 
Of mirrors of contracts and signed armored clad 
          G 
Of the ways we play circus to hide what we had
----
              D G 
They won't tell me what I am to be an American
       D G 
I'm here but my hearts at sea, oh they won't speak for me
----
 D G 
And someone spoke too soon they got caught again 
    D G 
And the kids they lost their breath in the revolution 
        Bm 
They settled for houses and for small kids
        G  
To tell them the stories of when they were young 
           Bm 
The warriors they thought they'd become 
       G 
Now hide in the surface like the roots from the sun
----
             D G 
They won't tell me what I am to be an American 
       D G 
I'm here but my hearts at sea, oh they won't speak for me
-----
BRIDGE:  Bm ,  G ,  Bm ,  G ,  A7sus4  ,  A 
----
         D 
I will stay up late and dig my own trench 
      G 
I'll ask all the questions they never present 
           Bm 
And it's sick and its vain and it's hard to explain 
       G 
To question the role or the play of the game 
                D 
Not for your founding father or for the new born threat 
                G 
Not for your radical breach that you tend to forget 
               Bm 
Not for your good mother or the weight of her debt 
                G 
Not for your children at sea, but your own way to..ooo
  D G 
Tell what you are to be an American 
           D G 
I can't live by your words and remain the person which I came 
              D G 
They wont tell me what I am to be an American 
       D G 
I'm here but I'm losing my cool, no I won't wait for you.




NOTES:
After most of the D chords and before each G you can play a   Dmaj7 , ex:
 D Dmaj7 G 
Inside my house we had forgotten now 

http://all-guitar-chords.com/index.php?ch=D&mm=maj7&get=Get
http://all-guitar-chords.com/index.php?ch=A&mm=7sus4&v=1
http://www.youtube.com/user/stonecoldfoxmusic?feature=watch

Birsera Malai Chords – Hem Lama

 The intro tab is tabbed by myself..... I hope it is correct...
Plz rate it...

Song   : Birsera Malai
Artist : Hem Lama

Tuning :EADGBE

 F       :133211 or x33210
 C       :x32010
 Gm      :355333 or 000333
 A#      :x03331
 A       :x02220
 Dm      :xx0231

From : Lama Tsubz

Intro and Outro Tab:

E[-8-----8-------8-------8-------]
B[---6-------6-------6-------6---]
G[-7---7-------7-------7-------7-]
D[-------------------------------]
A[-------------------------------]
E[-------------------------------]


E[---8-----8-----8-------8-------]
B[-----6-----6-------6-------6---]
G[-7-----7-----7-------7-------7-] x7
D[-------------------------------]
A[-------------------------------]
E[-------------------------------]

Chorus:
      F C Gm A# C F             ] x2
Aba Farki Heri Nadeu          A Dm                  ]
Marijane Ta Hoina    ]
      C                ] x2
Ma Timro Khusi Ma    ]
   A Dm        ]
Jali Jane Ta Hoina   Dm F C 
Timilai Aafno Bhani Bolaune
   C A# Dm 
Sayad Mero Adhikarai Chaina


Chorus:
      F C Gm 
Birsera Malai Tada Bhaidiyou
  A# C F 
Aba Farki Heri Nadeu


Verse 2:
   A Dm                ]
Na aaune Ta Hoina   ]
     C                ] x2
Jun Tara Aakash Ma   ]
   A Dm          ]
Nachaune Ta Hoina   Dm F C 
Nibhe Ko Aagooley Polyo Bhane
    C A# Dm 
Ashu Jharne Ma Kahile Chaina


Chorus:
      F C Gm 
Birsera Malai Tada Bhaidiyou
  A# C F 
Aba Farki Heri Nadeu


Verse 3:
    A Dm               ]
Farki Aaune Ta Hoina  ]
       C                ] x2
Nibhe Ko Diyo         ]
   A Dm           ]
Bali Jane Ta Hoina    Dm F C 
Aafaima Aayedi Haraye Bhane
    C A# Dm 
Samhali Dine Yaha Kohi Chaina


Chorus:
      F C Gm A# C F             ] x2
Aba Farki Heri Nadeu         

I Must Move Chords – Zombies V2

 Artist: The Zombies
Song: I must move
Tabbed by: DJ
14th Aug 2013

Tuning: Standard

 D        = xx0232    Cm/G   = xx5543    A    = x02220
 F#m/C#   = x44222    G      = 355433    D7   = xx0212
 A        = x02220    Gm     = 355333    F    = 133211
 C/E      = xx2010    A6     = x02222    F#   = 244322

The intro, and also the chorus, riff could be played
as the D major hammer-on tab shown below,
or as the C5 to D5 slide shown in the intro tab,
whichever works for you.  

     D7   ( D )   D7   ( D )
e|---2--------2-------|
B|---1---h3---1---h3--|
G|---2--------2-------|
D|---0--------0-------|
A|--------------------|
E|--------------------|

*************************************************************

      C5 D5 C5 D5 C5 D5 C5 D5 
e|-------------------|-------------------|
B|-------------------|-------------------|
G|---5--/7---5--/7---|---5--/7---5--/7---|
D|---5--/7---5--/7---|---5--/7---5--/7---|
A|---3--/5---3--/5---|---3--/5---3--/5---|
E|-------------------|-------------------|


   D F#m/C# A C/E Cm/G 
You've known me no  more than just  a few days,
           D F#m/C# A C/E Cm/G 
And you think love is so  good, you want me to stay,
           G Gm A6 A 
But that won't be any good--------!       No!


         D F#m/C# A C/E Cm/G 
I---- won't stop, won't stay, and you must know, in truth,
             D F#m/C# A C/E Cm/G 
Girl, you can't be in love  yet, you've no word of proof....
         G Gm 
...That I love you, and even if I do..


            D7 D D7 D D7 D D7 D 
...I must move-- on, must move-- on, I can't-- stand still--,
         D7 D D7 D F 
I must move-- on, must move-- on, must go!


  D F#m/C# A C/E Cm/G 
Take a good look  at your - self,  and at me,
   D F#m/C# A C/E Cm/G 
Turn right a - round open eyed, you will see,
            G Gm 
When this day is through, I'll be leaving you!


            D7 D D7 D D7 D D7 D 
...I must move-- on, must move-- on, I can't-- stand still--,
         D7 D D7 D F 
I must move-- on, must move-- on, must go!


   D F#m/C# A C/E Cm/G 
Humm - um - um, humm - um - um, humm - um - um - um!
   D F#m/C# A C/E Cm/G 
Humm - um - um, humm - um - um, humm - um - um - um!
   G Gm A6 A 
Humm - um - um, um - um, humm - um, um - um!      No!    No!


   D F#m/C# A C/E Cm/G 
You've known me no   more than just a few days,
           D F#m/C# A C/E Cm/G 
And you think love is so   good, you want me to stay,
           G Gm F# <s

Gole Yakh Chords – Kourosh Yaghmaei

 Intro Tab (Play at the very beginning)
e  -- 12 -- 12 --- 12 -- 12 --- 12 -- 12 --- 10 -- ----------------------------------------|
B  ---------------------------------------------------13 -- 12 – 10 --- 10 -----10---------|
G  --------------------------------------------------------------------------- 12 ---- 12--|
D  ----------------------------------------------------------------------------------------|
E  ----------------------------------------------------------------------------------------|

e  -------------------------------------------------------------------------------------------|
B  -------------------------------------------------------------------------------------------|
G  -------------------------------------------------------------------------------------------|
D  --9 -- 9 --9-------------------------------------------------------------------------------|
E  -------------------------------------------------------------------------------------------|(2x)

Intro Tab on the Repeat:
e|--------------------------------------------------------------------------------------|
B|--13--13--13--13--13--13--13--15--15--13--15--12--12--10--12--17--15/13\15/13--13--12-|
G|--------------------------------------------------------------------------------------|
D|--------------------------------------------------------------------------------------|
A|--------------------------------------------------------------------------------------|
E|--------------------------------------------------------------------------------------|

e|------------8--8--8--8--8--8--8--10--10--8--10--7--7--5--7---------------------------------|
B|--12/10\12---------------------------------------------------------------------------------|
G|------------------------------------------------------------7\9/7--5--5--4--5--4--4--2--4--|
D|-------------------------------------------------------------------------------------------|
A|-------------------------------------------------------------------------------------------|
E|-------------------------------------------------------------------------------------------|


Am                     Em                  Dm          Am
Gham miyoone do ta chashmoone ghashanget,     loone kardeh
Am                  Em     Dm            Am
Shab too moohaye siyahet,      khoone kardeh
E          E7        F    Dm           E
Do ta chasmooneh siyahet,    mesle shabhaye mane
E    E7           F    Dm           E
Siyahiaye do cheshmet,    mesle ghamhaye mane

Am            Em          Am           Bb            Am
vaghti  boghz az mojeham payin miyad,     baroon mishe
Am        G          F            E
sayle ghamha abadimo   viroone karde
Am        Em          Am          Bb         Am
vaghti ba man mimooni tanhayimo,     bad mibare
Am         G           F             E
do ta cheshmam baroone,  shaboone karde

E7                    F
bahar az dastaye man par zado raft
G         F             E
gole yakh tooye delam javooneh karde
E7                   F
Too otagham daram az tanhayi atish migiram
G          F            E
ey shokoofeh tooye in zamooneh karde

Am         F            Dm            E
chi bekhoonam, javoonim raft ke sedam rafteh dige
G         F             E           E7
gole yakh tooye delam javooneh kardeh     (2x)


Outro Tab (Play after finishing the repeat):

e|--------------------------------------------------------------------------------------|
B|--13--13--13--13--13--13--13--15--15--13--15--12--12--10--12--17--15/13\15/13--13--12-|
G|--------------------------------------------------------------------------------------|
D|--------------------------------------------------------------------------------------|
A|--------------------------------------------------------------------------------------|
E|--------------------------------------------------------------------------------------|

e|------------8--8--8--8--8--8--8--

How Do You Get That Lonely Tabs by Blaine Larsen

 Intro Tab: (not exact, just what I came up with, sounds close)

E--------------------------------|
B--------------------------------|
G--------------------------------|
D-15-14-15-14-15-14-12-14-12-10--|
A--------------------------------|
E--------------------------------|

E--------------------------------|
B--------------------------------|
G-------------------17-----------|
D-15-14-15-14-15-14----15-14-12--|
A--------------------------------|
E--------------------------------|
Verse 1:
F                         Dm
It was just another story written on the second page
Bb                              C
Underneath the Tiger's football score
        F                     Dm
It said he was only eighteen, a boy about my age
Bb                                      C
They found him face down on the bedroom floor
            Dm                        C
There'll be services on Friday at the Lawrence Funeral Home
Bb                                       C
Then out on Mooresville highway, they'll lay him 'neath a stone…

Chorus:
F          C        Bb      F          C         Bb
How do you get that lonely, how do you hurt that bad
Gm                         Dm
To make you make the call, that havin' no life at all
D#                 Dm            C
Is better than the life that you had
F          C       Dm   C  Bb            F      Bb
How do you feel so empty, you want to let it all go
F          C        Bb     Gm     C      Bb
How do you get that lonely... and nobody know…

E--------------------------------|
B--------------------------------|
G-------------------17-----------|
D-15-14-15-14-15-14----15-14-12--|
A--------------------------------|
E--------------------------------|

Verse 2:
F                                            Dm
Did his girlfriend break up with him, did he buy or steal that gun?
Bb                       C            F
Did he lose a fight with drugs or alcohol?
                                Dm
Did his Mom and Daddy forget to say I love you son?
Bb                                C
Did no one see the writing on the wall?
        Dm                      C
I'm not blamin' anybody, we all do the best we can
Bb                              C
I know hindsight's 20/20, but I still don't understand…

(Repeat Chorus)

Verse 3:
F                         Dm
It was just another story printed on the second page
Bb             C                   Dm
Underneath the Tiger's football score

Tabbed by Brian McCullar

Like A Sad Song Tabs by John Denver

 
I've only posted the chords and the intro tab for now. if anyone can
 transcribe the rest of the tab that would be great :D

Chords Used:

   C     Cm    G     Dsus2 D     D/F#  Em    G7    Am      
e|-0-----0-----3-----0-----2-----2-----0-----1-----0---|
B|-1-----1-----0-----3-----3-----3-----0-----0-----1---|
G|-0-----0-----0-----2-----2-----2-----0-----0-----2---|
D|-2-----1-----0-----0-----0-----0-----2-----0-----2---|
A|-3-----3-----2-----x-----x-----0-----2-----2-----0---|
E|-x-----x-----3-----x-----x-----2-----0-----3-----x---|


Intro riff/Chorus Riff

   C       Cm      G               C       Cm      Dsus2       D
e|---------------0---------3---------------------0---------0---2-----|
B|-------1-----1---------0---0-----------1-----1-------3-----3-------|
G|-----0-----0---------0-------0-------0-----0-------2---2-----------|
D|---2-----1---------0-----------0---2-----1-------0-----------------|
A|-3-------------------------------3---------------------------------|
E|-----------------3-------------------------------------------------|


G              D/F#         Em                G7
Usually in the morning, I'm filled with sweet belonging
    C             Cm           G
And everything is beautiful to see
G              D/F#         Em              G7
Even when it's raining, the sound of heaven singing
   C             Cm       G
Is simply joyful music to me.

C           Cm          G
Sometimes I feel like a sad song
     C       Cm        Dsus2     D
Like I'm all alone, without you.

   G              D/F#      Em              G7
So many diff'rent places, a million smiling faces
C          Cm            G
Life is so incredible to me
  G              D/F#         Em           G7
Especially to be near you, and how it is to touch you
   C            Cm               G
Oh paradise was made for you and me.

C           Cm          G
Sometimes I feel like a sad song
     C       Cm        Dsus2     D
Like I'm all alone, without you.

C           Cm                G         Em
I know that life goes on just perfectly
    Am            D                           G                     
And ev'rything is just the way that it should be
C               Cm            G                Em
Still there are times when my heart feels like breaking
    Am                           Dsus2     D
And anywhere is where I'd rather be.

G             D/F#          Em                 G7     
Oh and in the night time, I know that it's the right time
   C                  Cm             G
To hold you close and say, I love you so
   G               D/F#            Em            G7   
To have someone to share with, and someone I can care with
    C             Cm            G
And that is why I wanted you to know

C           Cm          G
Sometimes I feel like a sad song
     C       Cm        Dsus2     D
Like I'm all alone, without you.

Instrumental: play same chords as the verse's

C           Cm          G
Sometimes I feel like a sad song
     C       Cm         Dsus2        C         Cm       G      C
Like I'm all alone, without you, without you. 

Mmmbop Tabs by Hanson V4

 Hanson
MmmBop

Capo 1/2 (Can be played with either capo 1 or capo 2)

This intro tab repeats at various points throughout the song.

     D          A          G          A
e|---2----------0----------3----------0-----------| ||
B|-----3----------2----------0----------2---------| ||
G|-2-----2----2-----2----0-----0----2-----2-------|•||
D|------------------------------------------------|•||
A|------------------------------------------------| ||
E|------------------------------------------------| ||


This little riff is the riff the distorted guitar plays. You can mess about with the 
pattern but the power chords are pretty much what he uses.
       D          A         G          A
e|--------------------------------------------| ||
B|--------------------------------------------| ||
G|-7---7---7-7--------------------------------|•||
D|-7---7---7-7---7-7----5---5---5-5---7-7-----|•||
A|-5---5---5-5---7-7----5---5---5-5---7-7-----| ||
E|---------------5-5----3---3---3-3---5-5-----| ||

From there on the chord pattern is pretty much this:

D: (xx0232)
A: (x02220)
G: (320033)
A: (x02220)

With two beats per chord.

Happy playing :)

Alive Chords – Empire Of The Sun

     */ Kouk here.            Chords and Tabs by hearing\*
    *\First single of their new album 'Ice on the Dune'/*

INTRO:  D Bb  

INTRO TAB:
G------------|
D--7--7-7--7-|    
A-----------5|
E------------|

 F Bb          
Days go by my window
 G Bb 
World slows down as it goes
 F Bb 
Goodbye to last night
 F Bb 
Lost my eyesight
 F Bb F 
Can’t you help me see?
(They won’t get right)

[Chorus]
 Bb F Bb 
Love you every minute cause you make me feel so alive
   F 
Alive
 Bb F Bb 
Love you every minute cause you make me feel so alive
   F Am D 
Alive, alive, alive

 F Bb      
Waking in the snow
 F Bb 
Tracing steps of you
 F Bb 
Swimming through the snow
 F Bb 
Wrapped in, proud we’ll go
 F Bb F 
Can’t you help me see?
(They won’t get right)

[Chorus]
Love you every minute cause you make me feel so alive, alive
Love you every minute cause you make me feel so alive, alive
Alive, alive, alive

Can you describe to me
All the world that you see?
Oh I need you so much,
I'll just wait
Freedom is within you
Giving makes us feel good
Hello to our people
Say hello to the future

Freedom is within you
Giving makes us feel good
Hello to our people
Say hello to the future

[Chorus]
Love you every minute cause you make me feel so alive, alive
Love you every minute cause you make me feel so alive, alive
Alive, alive, alive
Love you every minute cause you make me feel so alive
Alive
Love every minute cause you make me feel so alive
Alive, alive, alive

In The Flesh Tabs by Pink Floyd V3

 Intro(Chords):

E  D  G  A Bm-Cm  
G  D  E

D  E  G7/Dm  E
D  E  G7/Dm  G

A  A  E  A E-D    Bm  A  E
A  A  E  A E-D    Bm  A  E
A  A  E  A E-Bm   D   A  E  
C#m  E  Bm  A  E...

Intro (Tab):

|-------------------------------------------------------------------------------|
|-------------------------------------------------------------------------------|
|--------------------------------------------12/--7-----7~---7/--9--------------|
|--------------------------------------------12/--7-----7~---7/--9--------------|
|----------------------0----2----3~~---------10/--5-----5~---5/--7--------------|
|--0--0----2~~----3-------------------------------------------------------------|


|------------0---------------0--------------------------------------------------|
|---------0-----3---------0-----3~----------------------------------------------|
|----2b4------------2b4---------------2b4r2---0---------------------------------|
|------------------------------------------------2--0----------------------2~---|
|------------------------------------------------------2—1-0--------------------|
|---------------------------------------------------------------3b4r3---0-------|



|-------0~~--------0~~--------x~~--------0~~---|
|-------3~~--------5~~--------6~~--------5~~---|
|-------2~~--------4~~--------5~~--------4~~---|
|-------0~~--------0~~--------0~~--------0~~---|
|----------------------------------------------|
|----------------------------------------------|


|-------0~~--------0~~--------x~~-------x~~----|
|-------3~~--------5~~--------6~~-------8~~----|
|-------2~~--------4~~--------5~~-------7~~----|
|-------0~~--------0~~--------0~~-------0~~----|
|----------------------------------------------|
|----------------------------------------------|










Main Riff
|-----------------------------------------------------------------|
|-----------------------------------------------------------------|
|-----------------------------------------------------------------|          2x(Times)
|------------------------------------------------2----------------|
|--0—2b4--2--0------------------4b5--4--2--------0----------------|
|----------------2b3---2------------------------------------------|

|--------------------------------------------------------------------------|
|--------------------------------------------------------------------------|
|--------------------------------------------------------------------------|
|--------------------------------------------------------------------------|
|--2b4--2—0---1-2---------4b5--4--2----3-4--------5b7---5--4---------------|
|--------------------------------------------------------------0—x-x-x-----|


A                              D
So ya thought ya might like to go to the show
A
To feel the warm thrill of confusion
     D
That space cadet glow


A
Tell me is something eluding you sunshine?
Bm                     E7
Is this not what you expected to see?
       C#m
If you wanna find out what's behind these cold eyes?
       E
You'll just have to claw your way through this disguise


Here you do some picking...(during verse)
             A                           D
|----------0-----------0----------------2------------2---------|
|-------2----2-------2----2----------3-----3-------3---3-------|
|----2---------2---2--------2-----2----------2---2-------2-----|  2x(Times)
|--2-------------2--------------0--------------0---------------|
|--------------------------------------------------------------|
|--------------------------------------------------------------|

             A                  Bm
|----------0-----------0----------------2------------2-----------|
|-------2----2-------2----2----------3-----3-------3----3--------|
|----2---------2---2--------2-----4----------4---4---------4-----|
|--2-------------2--------------4--------------4-----------------|
|------------------------

Bitter Morning Taste Chords – Tim Vantol

 Capo 6ft.

Intro (for the Intro-tab listen to the song or watch his video)

 C  -  G/C  -  Am (2x) -  F (2x)
 C  -  G/C  -  C  (2x)

Verse 1

 C G 
Nothing last forever, there are no other words left to say
        Am F 
We'll arrive with empty hands, and we will fill them as we fade
              C G Am F   
'till it overflows, and the waves will carry us back to shore

     C G 
the current will carry us apart, we will drift away, somewhere far
         Am F 
and the deepest blue will hold us for a while
           C G Am       
to let us mourn our loss, until we realize

Chorus

      F 
this emptiness is hard to fill
         G 
and i'm sure that it never will
      C G Am  
the things just seems happen that way
           F           G            C (play like the Intro)
i miss you more than i did yesterday


Verse 2

Well the simple smile you gave last night, reminds me of the better times
the morning left me empty but relieved
please let this day go by and meet again somewhere when i'm asleep


Chorus

      F 
this emptiness is hard to fill
         G 
and i'm sure that it never will
      C G Am  
the things just seems happen that way
            F G C - G - Am - G - F G 
i miss you more than i did yesterday (long note)

      F 
this emptiness is hard to fill
         G 
and i'm sure that it never will
      C G Am  
the things just seems happen that way
            F G C  
i miss you more than i did yesterday


Enjoy! Support the musicians!

Me And My Melody Tabs by Arid

 
Chords:

   Fmaj7 Am*  Dm*   E*

e   0     0    0    0
B   1    10    6    0
G   2     9    7    9
D   3    10    7    9
A   3     0    5    7
E   1     x    x    0

If you should think these settings stink (which I don't think, since I've seen
Jasper and David play it in a similar way), just use the basic Fmaj7, Am, Dm and E chords.


Intro: (the intro tab isn't correct, but that's the best I can do)

Guitar 1
     (high F)
e --------------|
B ----------13--|
G -------14-----|
D ----15--------|    (repeat several times, listen to cd for correct timing)
A -15-----------|
E --------------|

Guitar 2

e -8-7-------8-7----  (after several times, changed by: -8-10-----|
B -----10--------10-                                    ------10--|
G ----------------------------------------------------------------|
D ----------------------------------------------------------------|
A ----------------------------------------------------------------|
E ----------------------------------------------------------------|

Guitar 3 (acoustic - played on electric guitar during live appearances)
starts strumming chord progression Fmaj7 - Am - Dm - E
while guitars 1 & 2 play arpeggio's based on chords (not very difficult to find
out, just listen to the song)

Verse 1:

Fmaj7                     Am*
Oh lord, pulling me down
                            Dm*
Oh darling, how weak this crown
                       E*
do you fail to understand

what's heartily now what's in your hand
Fmaj7              Am*
Oh creature, oh love, strained now
                    Dm*                 E*
till we get enough I ain't afraid no more

as they batter down the door

Repeat same chords till end

Who you are and what you say
you've built it up some other way
isn't that a crime, these tears divine
love you tear me up sometimes and
Oh darling you and me, stuck on time as we see
the outside world slip away till the dark,
the dark of the day
And who you are and what you say
What does it mean now anyway
throw off your crown, tread me down
oh bay stop all feelings now
And we're worlds apart
helpless as we are you and I walk on by
our little love will die
Still walking the bridge to God thinking things
that I cannot relate this to, what you say
bricks are falling down this day
Oh darling, the weeks to come ain't nothing
but the sound of your drum
you can stay or walk away
As I, I long to say
Who you are and what you say
babe we've lost now anyway isn't that a crime
these tears divine
a river 'round your waist sometimes.
Stuck in tears as we've gone too far
babe you've built a wall that's hard
getting through, getting through to you
Who you are and what you say
held down anyway Darling fear brought us here
Ooh, hey, Hold hands she don't want me tied
her hand still stuck in mine Baby I long to see
Hey you, my tears won't mend
Until the end

Outro:

Guitar 1:

G -----2-|
D -------|  repeat several times
A ---3---|
E -1-----|

Guitar 3: just strums the Fmaj7-chord (listen to the song for correct timing)

Chari Chords – 1974 Ad

 The intro tab is tabbed by myself..... I hope it is correct...
Plz rate it...

Song   : Chari
Artist : 1974 Ad
Album  : Satabdi

Tuning :EADGBE

 G       :320033
 Cadd9   :x32030
 D       :xx0232
 Dsus4   :xx0233 (in intro tab)
 Dsus2   :xx0230 (in intro tab)
 Em      :022000
 A       :x32010

From : Lama Tsubz

Intro Tab:
    G Cadd9 
E│-3-3-3-3-3-3-3-3-3---0-0-0-0-0-0-0-0-0-│
B│-3-3-3-3-3-3-3-3-3---3-3-3-3-3-3-3-3-3-│
G│-0-0-0-0-0-0-0-0-0---0-0-0-0-0-0-0-0-0-│
D│-0-----0-----0-------2-----2-----2-----│
A│-2-----2-----2-------3-----3-----3-----│
E│-3-----3-----3-------x-----x-----x-----│

    G D Dsus4 Dsus2 
E│-3-3-3-3-3-3-3-3-3---2-3-3-2-0-0-2-│
B│-3-3-3-3-3-3-3-3-3---3-3-3-3-3-3-3-│
G│-0-0-0-0-0-0-0-0-0---2-2-2-2-2-2-2-│
D│-0-----0-----0---------------------│
A│-2-----2-----2---------------------│
E│-3-----3-----3---------------------│

Verse 1:
 G                         ¯│
 Yauti sani chari         │x2
 Cadd9 G   │
 Dherai din aaghi dekhi  _│

 D G 
 Jhukrayera basi rahethiyo
 D G 
 Tolayera basi rahethiyo

 Em G             ¯│
 Teshlai khai k bhayeko chha hai   │x2
 Em G         │
 Kasai lai pani thaha nai bhayena _│

 G                         ¯│
 Yauti sani chari         │x2
 Cadd9 G   │
 Dherai din aaghi dekhi  _│

 D G 
 Jhukrayera basi rahethiyo
 D G 
 Tolayera basi rahethiyo

 Em G             ¯│
 Teshlai khai k bhayeko chha hai   │x2
 Em G         │
 Kasai lai pani thaha nai bhayena _│

 C G           ¯│
 Sayad kasaile guleli po hanyo ki    │x2
 C G          │
 Sayad kasaile dhungale po hanyo ki _│

 D G 
 Teshko aarko milne jodi lai
 D G 
 Teshko aafno priyatam lai


Verse 2:
 C G 
 Sayad kasaile chorera po lagyo ki
 C G 
 Sayad kasaile gundh mai po foryo ki

 D G 
 Uska aanda bachera haru lai
 D G 
 Uska sa-sana chora chori lai

 Em G 
 Ti chari pani pirma pari
 Em G 
 Ek din tyo pani aafai mari
 Em G 
 Ti chari pani aaklo pari
 Em G 
 Ek din tyo pani aafai mari

Live Agua – The Cross Movement Chords

The Cross Movement
Live Agua

Intro Tab

e|-----------------|
B|-----------------|
G|-2-2-3---2---2-3-|
D|-------4---2-----|
A|-----------------|
E|-----------------|

I think these artists should be added because they are extremely popular and 
in several of their songs they have really awesome riffs that I'm sure a
beginning guitarist would want to play. They are simple, yet foundational,
riffs a person can learn to boost their self-esteem and give that individual
the kind of encouragement they need, because they will know how to play a
song that they enjoy.

Suspension – Mae Chords

Suspension
Mae
The Everglow

Intro tab:

e --------------------------------------------|---------
b -----------11-------8-------------9-8-------|---------
G ---8-10-8------8-10------8-10-8-------10-8--|(4x)-----
D -8------------------------------------------|------8--
A --------------------------------------------|---------
E --------------------------------------------|---------

Only Grace – Matthew West Chords

=============================================================== 
“Only Grace” 
Matthew West: 
History  2005 Word Music (ASCAP) 
===============================================================
Capo on 1st fret

Intro:
A    F#m   E
Stringed instrument plays:
D   ------7--6--2----------------
A   —7-----------4--2----------

Verse one:

A   F#m E  A
F#m E Bm A

Chorus:

A   E   D
F#m   E   Bm   A

A   F#m E  w/the intro tab

Verse two:

A F#m E A

Bridge:

F#m   Bm
Bm  F#m  E  
F#m   Bm
Bm  F#m  E  
 A

Ending is same as intro

Anthem – Youth Alive NSW Chords

Anthem
Youth Alive NSW
Elevate
I’ve had this checked over by top worship co-ordinators and leaders apart from the tab, so it should be all minted but any changes are welcome – FrAzEr1803

Intro/Chorus synth notes:
D, E, F, E, F, E (x2)
D, G, F, E, F, E (x2)

Intro tab:
d---7--7--7--9--9--9--10-10-10--9--9-10--9
a---5--5--5--7--7--7--8---8---8--7--7--8---7    x2
e-------------------------------------------------

d---7--7--7--12--12--12--10-10-10--9--9-10--9
a---5--5--5--10--10--10--8---8---8--7--7--8---7
e------------------------------------------------------

Verse:
Dm C
Am G
Dm C
Am G

Chorus: (1st time only)
Dm

Chorus: (2nd time and onwards)
Dm Bb G A

Bridge: (praise him, praise him)
Dm Bb/F Gm/Bb Csus2