Tag: jay

Bakit Pa Ba Tabs – jay r Vsion 3

 -------------------------------------------------------------------------------
SONG NAME - Band Name
-------------------------------------------------------------------------------
:romulo manzano jr
stylishup@guitar.com
play this tabs and sing this song softly
Tuning:standard
intro
e|-------1---------3-1-0---1------------1-----------------------------|
B|-----1---------1-------3------1h3---1----------------1--------------|
G|-2-------2-3----------------2-----2-----2-3--------3---3/5-5-2-3-2--|
D|---3---------------------------------------------3------------------|
A|---------------0-------------------------------1--------------------|
E|-1---------3--------------------------------------------------------|
verse
e|----------------1---1--------------------1---------------------3--------------------|
B|--------------3---3------------------------3-----3p1---------1----------------------|
G|-----2---2-----------------3---3-------0-------------3-----2------------------------|
D|---3---3----0------------3---3-------0----------------------------------------------|
A|-----------------------1-----------------------3---------1--------------------------|
E|-1---------------------------------3-----3------------------------------------------|
e|---------------1-3-3/5-------1---1---0------------------5-3---1--|
B|-------------1-------------3---3---3------------------------3----|
G|------2---2---------------------------------3---3----------------|
D|----3---3----------------0----------------3---3-------0----------|
A|----------------------------------------1------------------------|
E|--1-------------------------------------------------3------------|
e|-----------0-------------1------------------------------------------------------|
B|---------1---1---------1--------------------------------------------------------|
G|-------0-------0-----0----------------------------------------------------------|
D|-----2--------------------------------------------------------------------------|
A|---3-------3-------1------------------------------------------------------------|
E|--------------------------------------------------------------------------------|
refrain
e|------------------0-5-6--------6-6\5-3-------------------3-------1---------------------|
B|--------1-------1----------------------5-3-------------3-------3-----------------------|
G|------2-------2--------------3-------------5-4-2-----3-------2-------------------------|
D|----2-------0--------------5-------------------------------0---------------------------|
A|--0------------------------------------------------1-----------------------------------|
E|-------------------------3-------------------------------------------------------------|
e|---------1--0------------------------------------------------------------------|
B|-------3----1------------------------------------------------------------------|
G|-----0------0------------------------------------------------------------------|
D|------------2------------------------------------------------------------------|
A|---3--------3------------------------------------------------------------------|
E|-------------------------------------------------------------------------------|
chorus
e|--------1-------------1----------------------1-0----------1--------0-----------------|
B|----------1-------------3-----------1------1-----1------3--------1-------------------|
G|------2-----2-------0-----0-------2------0------------2--------0---------------------|
D|----3-------------0-------------2-------------------0--------------------------------|
A|------------------------------0--------1-------1-------------3-----------------------|
E|--1-------------3-----3--------------------------------------------------------------|
e|------1------3-1p0-3---------------------------------------------------------------|
B|----1-----1------------------------------------------------------------------------|
G

Blue Jay Way Tabs – Beatles V2

 THE BEATLES - BLUE JAY WAY
==========================
Words & Music by George Harrison
Copyright 1967 Northern Songs
Open C6-Tuning: C-G-C-G-A-e
tab by rosh85
This song evolves around a C chord for most of the time throughout the song with the overtones 
to back George Harrison's lead vocals and thus constantly changing the chord. Since it was composed
on a hammond organ, this is an attempt to transfer it to a guitar. Since it's the most comfortable way
to play it,I've chosen an open C6 tuning (C-G-C-G-A-e).
INTRO:
C                   C                   C        C7+         
e||-------------------|-------------------|--------------------|
A||-------------------|-------------------|--0--------2--------|
G||--5----------------|--5----------------|--0--------0--------|
C||-------------------|--0----------------|--0--------0--------|
G||-------------------|-------------------|--------------------|
C||-------------------|-------------------|--------------------|
C5       C7+       (C7+)  C6   C7+  C9+     C5 C7+ C5 C7+  C6  C7+   
--------------------|----------------------|------------------------|
--3--------2--------|-(2)---0----2----5----|--3----2--3--2----0--2--|
--0--------0--------|-(0)---0----0----0----|--0----0--0--0----0--0--|
--0--------0--------|-(0)---0----0----0----|--0----0--0--0----0--0--|
--------------------|----------------------|------------------------|
--------------------|----------------------|------------------------|
C5                 
-------------------||
-------------------||
--0----------------||
--0----------------||
-------------------||
-------------------||
VERSE:
Cdim                       C                   
e||-------------------------|-------------------|
A||-------------------------|-------------------|
G||-(0)---------------------|-------------------|
C||-(0)---0--3--6--3--0--3--|--4----------------|
A||------------------- -----|--5----------------|
C||-------------------------|--0----------------|
1. There's a fog up-on L.     A.
2. Well it on-ly goes to      show.
3. Now it's past my bed I     know.
Cdim                      C                  Cdim
-------------------------|-------------------|-------------------------|
-------------------------|-------------------|-------------------------|
-------------------------|-------------------|-------------------------|
-(4)---0--3--6--3--0--3--|--4----------------|-(4)---0--3--6--3--0--3--|
-(5)---------------------|--5----------------|-(5)---------------------|
-(0)---------------------|--0----------------|-(0)---------------------|
1. And my friends have lost their way.         We'll be o-ver soon they
2. And I told them where to go.                Ask a p'liceman on the
3. And I'd real-ly like to go.                 Soon will be the break of
Cb5                Cdim                       C5
-------------------|-------------------------|-------------------|
-------------------|-------------------------|-------------------|
-------------------|----------0--2--0-----2--|-------------------|
--6----------------|-(6)---3-----------3-----|--7----------------|
--5----------------|-(5)---------------------|--5----------------|
--0----------------|-(0)---------------------|--0----------------|
1. said.            Now they've lost them-selves in-stead.
2. street.          There's so ma-ny there to meet.
3. day.             Sit-ting here in Blue Jay Way.
CHORUS:
C6       C7+         C5       C7+                             
e||--------------------|--------------------|
A||--0--------2--------|--3--------2--------|
G||--0--------0--------|--0--------0--------|
C||--0--------0--------|--0--------0--------|
G||--------------------|--------------------|
E||--------------------|--------------------|
Please   don't        be      long 
C6   C7+          C5  C7+   C5  C7+ C6 C7+
|----3----|                   
---------------------|--------------------------|
-(2)-

Jay Ulysses Moses Hanson chords – Wayne Rostad

 E G A E 
Jay Ulysses Moses Hanson, Jay Ulysses a mountain man
G               
Hid in the hills ‘cause his face was scarred from
A E  
A wrestlin’ match with a grizzly bear
D A 
He carved him a hole in the belly of a giant,
E 
A giant oak tree
- - -
E G A E 
Now Jay Ulysses swore his vengeance on that grizzly bear
G 
He’d run through the hills screamin’ and a shoutin’
A E 
At bears that weren’t even there.
G B7 
People in the town would lay and shiver in their sleep
When he went,
A E 
Grr  --  ha – ha  - come on bear,
A E 
Grr --  ha – ha – I’m gonna get you bear.
D A E 
You see Jay Ulysses Moses Hanson, why he was ravin’ mad.
- - -
E G A E 
Jay Ulysses Moses Hanson, Jay Ulysses a mountain man,
G 
You’d better start runnin’ when you hear him comin’
A E 
‘cause he’s out there lookin’ for the grizzly bear
- - -
E A ,  E A , (laughing)
- - -
E G A E 
Jay Ulysses Moses Hanson finally cornered that grizzly bear
E G 
Legend says, outside of the town
A E 
That the two giants met out on open ground,
D A E 
Jay Ulysses Moses Hanson - - and the grizzly bear.
E G 
Three days later, when the dust had settled,
A E 
Ulysses and the bear weren’t there,
G 
The people said “hey, it’s finally over”,
A E 
But the story didn’t end there,
G 
‘cause, on a still night, deep in the hills,
B7 
If you listen you’ll hear
A E 
Ha – Ha – come on bear,
A E 
Ha – ha – I’m gonna get you bear, well there they go,
G 
There the hill is smoking - - -
A E 
Big Jay Ulysses and that grizzly bear,
E G 
Well here he comes – it’s big Jay Ulysses Moses Hanson, the mountain man
E G 
Well here he comes – it’s big Jay Ulysses Moses Hanson, the mountain man
E G 
Well here he comes – it’s big Jay Ulysses Moses Hanson, the mountain man
They call hi Jay Ulysses Moses Hanson, chasin’ the grizzly bear.

On All Fours Tabs by Jay Brannan

 , but I put a lot of work into it because Jay Brannan is awesome and
I saw no one else had tabbed this song out yet.
Feel free to make corrections/comments below.
Also I don't know the name of the chord [ 8 10 10 0 0 0 ] but I'm pretty sure that's
what he plays. Let me know what it's called if you know the name.
Here's the video that helped me write out this tab:

Standard Tuning, No Capo
* harmonics
x muted note
Intro and verse pattern:
e|--------|----------|----------|----------|-------|
B|--------|----------|----------|----------|-7*----|
G|--------|----------|----------|----------|-7*-7*-|
D|--------|----------|----------|----------|----7*-|
A|--------|-x--------|-x--------|-x--x--x--|-------|
E|--0-2-2-|-5--0-1-1-|-3--0-2-2-|-5--9--10-|-------|
e|--------|----------|----------|----------|-------|
B|--------|----------|----------|----------|-------|
G|--------|----------|----------|----------|--12*--|
D|--------|----------|----------|----------|--12*--|
A|--------|-x--------|-x--------|-x--x--x--|-------|
E|--0-2-2-|-5--0-1-1-|-3--0-2-2-|-5--9--12-|-------|
Verse 1:
Three weeks and counting till he's on his way to France
Not a dime in his pocket but a ticket in his hand
He's a cynical bastard but there's hope in his eyes
It's ben a long time comin' spent a long time runnin' from his insides
Verse 2:
He tries hard to songwrite his way out of bed
But nothing tastes as clever as it sounded in his head
He wants to get his teeth wet and sink his feet in
He should have billions of dollars 'cuz every asshole's put two cents in
Chorus:
Dsus2 x57755                   Am 577555                   8(10)(10)000
And he writes the songs yeah he can say what he wants yeah he can be who he wants to
And they say he's wrong but they keep tagging along yeah they can leave if they want to
And his way will never met yours
He's got the world on his back and watch him take it... on all fours
Verse 3:
Nine out of ten motherfuckers agree that his fucking foul language is a fucking travesty
But motherfucking fuck is just another fucking word
The idea a word is dirty is to him fucking absurd
Chorus
Bridge:
e|-------------------|-------------|-------------|-------------------|
B|-------------------|-------------|-------------|-------------------|
G|-------------------|-------------|-------------|-------------------|
D|-------------------|-------------|-------------|-------------------|
A|-------------------|-------------|-------------|-------------------|
E|-10-10-10-10-10-10-|-5-5-5-5-5-5-|-7-7-7-7-7-7-|-15-15-15-15-15-15-|
And this world will soon be the death of him, and his voice will fade away
And his jeans will be all that's left of him, and they'll wonder if he was ok
e|-------------------|-------------|-------------|-------------------|
B|-10-10-10-10-10-10-|-5-5-5-5-5-5-|-7-7-7-7-7-7-|-15-15-15-15-15-15-|
G|-------------------|-------------|-------------|-------------------|
D|-------------------|-------------|-------------|-------------------|
A|-------------------|-------------|-------------|-------------------|
E|-10-10-10-10-10-10-|-5-5-5-5-5-5-|-7-7-7-7-7-7-|-15-15-15-15-15-15-|
And the Alkies will say it was drinkin', and the preacher will say it was sin
And his mother will say he was thinkin' only of himself again
And the gays they will say it was straight people, and the straights will say it was AIDS
And he'll be in line at the gate, people still standing
In his way
In his way
e|-----10------ 10---|---5----5--|---7----7--|-----15-------15---|
B|---10--10---10--10-|--5-5--5-5-|--7-7--7-7-|---15--15---15--15-|
G|-------------------|-----------|-----------|-------------------|
D|-------------------|-----------|-----------|-------------------|
A|-------------------|-----------|-----------|-------------------|
E|-10-------10-------|-5----5----|-7----7----|-15-------

Oh Its Such A Shame Tabs by Jay Reatard

 Verse
|--0000-------2222--------0000-------2222------------------|
|--0000-0-0-0-3333-0-0-0--0000-0-0-0-3333-0-0-0-0-0-0-0-0--|
|--0000-4-4-5-4444-5-5-4--0000-4-4-5-4444-0-2-0-4-0-5-0-4--|
|--2222-------4444--------2222-------4444------------------|
|--2222-------2222--------2222-------2222------------------|
|--0000-------2222--------0000-------2222------------------| X2
Chorus
G       Em     C
e|-33333--77777--33333--|
B|-33333--88888--55555--|
G|-44444--99999--55555--|
D|-55555--99999--55555--|
A|-55555--77777--33333--|
E|-33333--77777--33333--| X3
End chorus with
G       Em     D
e|-33333--77777--55555--|
B|-33333--88888--77777--|
G|-44444--99999--77777--|
D|-55555--99999--77777--|
A|-55555--77777--55555--|
E|-33333--77777--55555--| 
Repeat Verse and Chorus one more time
Outro:
e|--00000000-00000000-00000000-00000000-00000000-00000000-0000-0000|
B|--00000000-00000000-00000000-00000000-00000000-00000000-0000-0000|
G|--55555555/44444444/55555555/22222222/55555555/44444444/5555/7777|
D|--00000000-00000000-00000000-00000000-00000000-00000000-0000-0000|
A|--33333333/22222222/33333333/22222222/33333333/22222222/3333/5555|
E|--00000000-00000000-00000000-00000000-00000000-00000000-0000-0000| 
Repeat until fade out
There is also a second guitar that I think plays this towards the end of the Outro
e|-^19-^19-^19-19-19-19-^19-^19-^19---|
B|------------------------------------|
G|------------------------------------|
D|------------------------------------|
A|------------------------------------|
E|------------------------------------|

Caliente chords – Jay Santos

 [Intro]
D E F#m  
Una más!
D E F#m D E F#m  
Jay Santos!
D E F#m D E F#m    
Mírala como se siente, eh, eh, eheheh
D E F#m   
Ay, que se siente caliente, eh, eh, eheheh 
D E F#m   
Mírala como se siente, eh, eh, eheheh 
D E F#m   
Ay, que se siente caliente 
D E F#m    
La fiesta ta buena, es pa beber, pa bailar
D E F#m   
Dime si tu estás soltera, yo te quisiera probar
D E F#m   
Vamos a tomarnos tequila, esta noche vamos a rumbear
D E F#m     
Pégate y prende en candela, la disco está a reventar
Jay Santos!
D E 
Un chupito p'aquí, un chupito p'allá
F#m   
Toda la noche es así, no parar de bailar
D E 
Una chica fásil a la hora de hablar
F#m 
Que me tiene creisi con su forma follar...
D E 
Dime mano, que tu quiere ahora
F#m  
Estás soltera, vamo a darle a todas
D E 
Prende ya, que se nos van las horas
F#m  
Tu y yo en esa baila loca!
D E F#m  
Se siente caliente, eh eh eh, te quiero ver
D E F#m  
Se siente caliente, Tu y yo bebe!
D E F#m  
Se siente caliente, eh eh eh, te quiero ver
D E F#m  
Se siente caliente, Tu y yo bebe!
D E F#m    
Mírala como se siente, eh, eh, eheheh
D E F#m   
Ay, que se siente caliente, eh, eh, eheheh 
D E F#m   
Mírala como se siente, eh, eh, eheheh 
D E F#m   
Ay, que se siente caliente 
D E F#m    
La fiesta ta buena, es pa beber y pa bailar
D E F#m   
Dime si tu estás soltera, yo te quisiera probar
D E F#m   
Vamos a tomarte tequila, esta noche vamos a rumbear
D E F#m     
Pégate y prende en candela, la disco está a reventar
Tequila, tu quiere?
D E F#m  
Se pone, se activa cuando sube la adrenalina
D E 
Siento el ritmo que la motiva
F#m 
No le pare y vive la vida, baby!
D E 
Como te mueves tan sexy girl?
F#m  
nananananaa fumar maria...
D E F#m     
Sexy baby, be my baby, got me crazy, call me maybe!
D E F#m  
Se siente caliente, eh eh eh, te quiero ver
D E F#m  
Se siente caliente, Tu y yo bebe!
D E F#m  
Se siente caliente, eh eh eh, te quiero ver
D E F#m  
Se siente caliente, Tu y yo bebe!
D E F#m    
Mírala como se siente, eh, eh, eheheh
D E F#m   
Ay, que se siente caliente, eh, eh, eheheh 
D E F#m   
Mírala como se siente, eh, eh, eheheh 
D 

Hoping Machine chords – Jay Farrar V2

 From the “New Multitudes” album (Jay Farrar, Will Johnson, Anders Parker, & Yim Yames)
Lyrics by Woody Guthrie
Music by Jay Farrar
Tabs by Tim Prizer (tim_prizer)
***Farrar recorded this song in an alternate tuning.  This is as close as I could come
to translating the song into standard tuning, and I think it sounds quite nice.  Please
pay close attention to the chord fingerings, as they are all slight variations on the 
standard major chords and require that you hit the bass notes – my effort to come as close as
possible to reproducing the heavy bass sound of the alternate tuning.
[ F ]: x-3-3-2-1-x--|
[ C ]: 3-3-2-0-1-x--|
[ G ]: 3-2-0-0-0-x--|
[ F *]: 1-3-3-2-1-1-|
Intro**: [ F ] [ C ] [ F ] [ C ] [ F ] [ C ]
[ F ] [ C ]
**(Though it’s far from perfect, I mimic Jay’s hammers and slides in the intro by
hammering the 3rd string on the 2nd fret on the very first strum and then, in making the
transition from the [ F ] to the [ C ], hammering the 4th string on the 2nd fret and then 
striking it open before hitting the [ C ] chord.  Listen and play around with it to see what 
I mean.)
[ F ] Don’t let anything knock your [ C ] props out from under you
[ F ] Always keep your mind clear, let your [ C ] plans come out of mistakes
[ F ] These are the plans that [ C ] nothing can tear down
[ F ] Made out of things that have already [ C ] been torn down
[F*] Whatever you do and wherever [ C ] you go
[F*] Don’t lose your grip on life, and that [ C ] means
[ G ] Don’t let any earthly calamity [F*] knock your dreamer and your hoping [ C ] machine
(Intro chords again): [ F ] [ C ] [ F ] [ C ] [ F ] [ C ]
[ F ] [ C ]
[ F ] Music is the language of the [ C ] mind that travels
[ F ] It carries the key to the laws [ C ] of time and space
[ F ] Lonesome train whistling down the [ C ] silent wail of wind
[ F ] Life is the sound, creation has [ C ] been a song
[F*] Whatever you do and wherever [ C ] you go
[F*] Don’t lose your grip on life, and that [ C ] means
[ G ] Don’t let any earthly calamity [F*] knock your dreamer and your hoping [ C ] machine
Out of [ G ] order
Out of [F*] order
Out of [ C ] order
Out of [ G ] order
Out of [F*] order
Out of [ C ] order
[ F ] Be quick to manufacture new [ C ] schemes and ideas
[ F ] Faster than any turn of [ C ] tide can wash you out
[ F ] The word is the music and the [ C ] people are the song
[ F ] Tomorrow’s chances feel like a singing [ C ] god
[F*] Whatever you do and wherever [ C ] you go
[F*] Don’t lose your grip on life, and that [ C ] means
[ G ] Don’t let any earthly calamity [F*] knock your dreamer and your hoping [ C ] machine
Out of [ G ] order
Out of [F*] order
Out of [ C ] order
Out of [ G ] order
Out of [F*] order
Out of [ C ] order
Out of [ G ] order
Out of [F*] order
Out of [ C ] order
Out of [ G ] order
Out of [F*] order
Out of [ C ] order
(Intro chords to finish): [ F ] [ C ] [ F ] [ C ]
[ F ] [ <span