Tag: jones

Jessica Jones – Wake Up Wake Up chords by Misc Unsigned Bands

[Intro]
E  A  E  B  E  A  E

[Verse 1]
              A                 E               B
That songbird on my window sill he's singing to me
E                     A         E                B
He sings because he's happy that his life can be free
E           A                     E          B
He tells to all the passers-by a joy in the world
E             A                  B           E
He knows that life is heaven for a boy and a girl

[Chorus]
E
Wake up, wake up
A
Wake up to the morning
E                      B
Wake up to the morning sun

E
Wake up, wake up
A
Wake up to the morning
E                      B
Wake up to the morning sun

E
Tell me, tell me
A
Tell me that you'll see me
E                      B
See me when the day is done

E
Wake up, wake up
A
Wake up to the morning
E
Wake up to the morning sun

E            A
La la laa la la laa laa la
E               B
La la laa la la laaaa

E         A         E
La la laa la la laa laa la
E           B       E
La le la la la lala laaaa

[Verse 2]
E             A            E                     B
That songbird on my window sill he's speaking of you
E           A           E             B             E
He sings because he's happy when each night time is through


[Chorus]
E
Wake up, wake up
A
Wake up to the morning
E                      B
Wake up to the morning sun

E
Wake up, wake up
A
Wake up to the morning
E                      B
Wake up to the morning sun

E
Tell me, tell me
A
Tell me that you'll see me
E                      B
See me when the day is done

E
Wake up, wake up
A
Wake up to the morning
E
Wake up to the morning sun

E            A
La la laa la la laa laa la
E               B
La la laa la la laaaa

E         A         E
La la laa la la laa laa la
E           B       E
La le la la la lala laaaa

[Outro]
E
Wake up, wake up
A
Wake up to the morning
E                      B
Wake up to the morning sun

E
Wake up, wake up
A
Wake up to the morning
E                      B
Wake up to the morning sun

E
Tell me, tell me
A
Tell me that you'll see me
E                      B
See me when the day is done

E
Wake up, wake up
A
Wake up to the morning
E
Wake up to the morning sun

I Cant Concentrate Chords by Wade Jones

CAPO: 1st FRET

INTRO:
NONE


CHORUS:
 A                F#m
Darling, I can't concentrate
 D              E
With you on my mind

       A     F#m
No, I can't concentrate
     D                    E
And think of you all the time


VERSE:
    A              F#m
And I remember the new love
D              E
So go wild my soul

    A                F#m
But if you just come back to me
 D         E        A
I'll never do you wrong


CHORUS:
 A                F#m
Darling, I can't concentrate
 D              E
With you on my mind

       A     F#m
No, I can't concentrate
     D                    E
And think of you all the time


VERSE:
     A               F#m
But when you said do not return
 D       E    A
How my heart burned


INSTRUMENTAL:
A  F#m  D   E
A  F#m  D   E
A  F#m  D   E
A  F#m  D  E  A


CHORUS:
 A                F#m
Darling, I can't concentrate
 D              E
With you on my mind

       A     F#m
No, I can't concentrate
     D                    E
And think of you all the time


VERSE:
    A              F#m
But I remember the new love
D              E
So go wild my soul

    A                F#m
But if you just come back to me
 D         E        A
I'll never do you wrong


CHORUS:
 A                F#m
Darling, I can't concentrate
 D              E
With you on my mind

       A     F#m
No, I can't concentrate
     D                    E
And think of you all the time


VERSE:
    A               F#m
And if I could hold you again
     D              E
And then I'd be so fine

     A
So, come back, come back,
      F#m
Come back to me
   D        E        A
A new love you will find


OUTRO:
   D        E        A
A new love you will find
   D        E        A
A new love you will find
   D        E        A
A new love you will find
   D        E        A
A new love you will find - (FADE OUT)


===================== CAPO: NONE =======================


SONG:   I CAN'T CONCENTRATE
ARTIST: WADE JONES
TAB BY: DON CZARSKI
EMAIL:  GUITARZAN7@HOTMAIL.COM


             I CAN'T CONCENTRATE
                  WADE JONES

CAPO: NONE

INTRO:
NONE


CHORUS:
 Bb               Gm
Darling, I can't concentrate
 Eb             F
With you on my mind

       Bb    Gm
No, I can't concentrate
     Eb                   F
And think of you all the time


VERSE:
    Bb             Gm
And I remember the new love
Eb             F
So go wild my soul

    Bb                Gm
But if you just come back to me
 Eb        F       Bb
I'll never do you wrong


CHORUS:
 Bb               Gm
Darling, I can't concentrate
 Eb             F
With you on my mind

       Bb    Gm
No, I can't concentrate
     Eb                   F
And think of you all the time


VERSE:
     Bb              Gm
But when you said do not return
Eb       F    Bb
How my heart burned


INSTRUMENTAL:
Bb  Gm  Eb  F
Bb  Gm  Eb  F
Bb  Gm  Eb  F
Bb  Gm  Eb F Bb


CHORUS:
 Bb               Gm
Darling, I can't concentrate
 Eb             F
With you on my mind

       Bb    Gm
No, I can't concentrate
     Eb                   F
And think of you all the time


VERSE:
    Bb             Gm
But I remember the new love
Eb             F
So go wild my soul

    Bb                Gm
But if you just come back to me
 Eb        F       Bb
I'll never do you wrong


CHORUS:
 Bb               Gm
Darling, I can't concentrate
 Eb             F
With you on my mind

       Bb    Gm
No, I can't concentrate
     Eb                   F
And think of you all the time


VERSE:
    Bb              Gm
And if I could hold you again
     Eb             F
And then I'd be so fine

     Bb
So, come back, come back,
      Gm
Come back to me
  Eb        F        Bb
A new love you will find


OUTRO:
  Eb        F        Bb
A new love you will find
  Eb        F        Bb
A new love you will find
  Eb        F        Bb
A new love you will find
  Eb        F        Bb
A new love you will find - (FADE OUT)

Golden Ring chords – George Jones Vsion 2

 Golden Ring George Jones

 D 
In a pawn shop in Chicago on a sunny sumer day
    A7 D           
A couple gazes at the wedding rings there on display

She smiles and nods her head as he says Honey that's for you.
                              A7 D 
It's not much but it's the  best that I can do.

         D 
Golden Ring with one tiny little stone
           A7 D 
Waiting there for someone to take it home

By itself it's just a cold metalic thing
                       A7 D      
Only love can make a golden wedding ring.

       D 
In a little wedding chapel later on that after noon
     A7 D   
An old up right piano plays that old familiar tune

Tears roll down her cheeks and happy thoughts run through her head
                          A7 D 
As he whispers low with this ring I thee wed.

         D 
Golden Ring with one tiny little stone
          A7 D 
Shining ring now at last it's found a home

By itself it's just a cold metalic thing
                       A7 D      
Only love can make a golden wedding ring.

      D 
In a small two room apartment as they fight their final round
     A7 D  
He says You won't admit it but I know you're leavin' town.

She says One thing's for certain I don't love you anymore.
                              A7 D 
And throws down the ring as  she walks out the door.

         D 
Golden Ring with one tiny little stone
       A7 D  
Cast aside like the love that's dead and gone.

By itself it's just a cold metalic thing
                       A7 D      
Only love can make a golden wedding ring.
 D 
In a pawn shop in Chicago on a sunny sumer day
    A7 G D           
A couple gazes at the wedding rings there on display Golden Ring

Jennifer Jason Leigh – Jim Jones At Botany Bay Tabs

 -------------------------------------------------------------------------------
            Jim Jones at Botany Bay -- "The Hateful Eight" version
-------------------------------------------------------------------------------
: FeynmansZombie

Tuning: half-step down

This is the version of the song played by Daisy (Jennifer Jason Leigh) in Tarantino's movie "The Hateful Eight."
Probably the best scene of the movie. As far as I can tell, it's an original arrangement - I tabbed it by ear
by listening to the soundtrack. This version is more similar to "Skibbereen" than it is to other versions of 
"Jim Jones at Botany Bay." The lyrics are also different in some places (especially the last line).

It's all four chords - stick to them and you can make up your own flourishes if you like. I won't pretend to 
know every note and nuance, but this was basically a live performance so it wouldn't do to be too scripted. For
instance, you could play G with the B string open or 3, or switch it up as you please.

Intro (also a motif that appears in every line):

eb|--------------------------------------------|
Bb|-------0------------------0-----------------|
Gb|----------------0-------------------0-------|
Db|--------------------------------------------|
Ab|-----------0h2-----------------0h2----------|
Eb|--0------------------0----------------------|



1st Verse:


      G                                    Am                Em
eb|---------------------------------------------------------------------------|
Bb|--------3-----------------3------------------1-----------------0-----------|
Gb|-----------------0-----------------0------------------2------------------0-|
Db|---------------------------------------------------------------------------|
Ab|------------------------------1---------0--------0------------------0h2----|
Eb|---3--------3--------3------------------------------------0----------------|

      Listen   for a    moment   lads, and hear me  tell my  tale,



     C                 G                 Am                Em
eb|---------------------------------------------------------------------------|
Bb|-------1-----------------3-----------------1-----------------0-------------|
Gb|----------------0-----------------0-----------------2-----------------0----|
Db|---------------------------------------------------------------------------|
Ab|--3--------3-----------------1--------0--------0-----------------0h2-------|
Eb|--------------------3-----------------------------------0------------------|

 How o'er the sea from England's shore I was con- demned to sail.


                                                       Notice the extra two beats ------
                                                       at the end of some lines.        |
                                                                                        |
                                                                                        |
                                                                                        V
     C                 G                 Am                Em
eb|--------------------------------------------------------------------------------------------|
Bb|-------1-----------------3-----------------1-----------------0------------------0-----------|
Gb|----------------0-----------------0-----------------2-----------------0-------------------0-|
Db|--------------------------------------------------------------------------------------------|
Ab|--3--------3-----------------1--------0--------0-----------------0h2---------------0h2------|
Eb|--------------------3-----------------------------------0-----------------0-----------------|

 The jury     found me "guilty  sir" and said the judge said he,


     Am                Em                 Am                Em
eb|-------------------------------------------------------------------------------------------|
Bb|------1------------------0-----------------1-----------------

Ai No Corrida chords – Quincy Jones

 Intro :     Em7 Am7 Bm7 Em7     
I hold you, I touch you
    Am7 Bm7 
In a maze can't find my way
    Em7            
I think you, I drink you
    Am7 Bm7 
I'm being served you on a tray
    A/C# D/C G/B Bbdim7 
You see girl, that's what I go through every day
    Am7 B 
Is this the way it should feel

    Em7     
So pinch me, i'm dreamin'
    Am7 Bm7 
But if it is don't let me know
    Em7 
I'm drowning, don't save me
    Am7 Bm7 
This is the way i want to go
    A/C# D/C G/B Bbdim7 Am7 Bm7 
You see girl, you thrill me, half kill me, that's what you do

 Em7 Am7 D/F# 
Ai no corrida, that's where I am
      Bm7 Em7 Am7 
You send me there, your dream is my command
 Em7 Am7 D/F# 
Ai no corrida, i find myself
      Bm7 Em7 Am7 
No other thought, just you and nothing else
 Am7 Bm7 Em7 
You and nothing else

 Em7 Am7 Bm7    2X

    Em7 Am7 Bm7 
Before i first saw you each day was just another day
    Em7 Am7 Bm7 
Night the lonely interlude just came, then blew away
    A/C# D/C G/B Bbdim7 Am7 B 
You know girl, everything was come what may until you fell in my life

    Em7 Am7 Bm7 
This spell that i'm under has caught me in a daze
    Em7 Am7 Bm7 
Your lightning and thunder sets my poor heart ablaze
    A/C# D/C G/B Bbdim7 Am7 Bm7 
You see girl, you thrill me, half kill me that's what you do

 Em7 Am7 D/F# 
Ai no corrida, that's where I am
      Bm7 Em7 Am7 
You send me there, your dream is my command
 Em7 Am7 D/F# 
Ai no corrida, i find myself
      Bm7 Em7 Am7 
No other thought, just you and nothing else
 Am7 Bm7 Em7 
You and nothing else

 Em7 Am7 D/F# 
Ai no corrida, that's where I am
      Bm7 Em7 Am7 
You send me there, your dream is my command
 Em7 Am7 D/F# 
Ai no corrida, i find myself
      Bm7 Em7 Am7 
No other thought, just you and nothing else

 Em7 Am7 D/F# 
Ai no corrida, that's where I am
      Bm7 Em7 Am7 
You send me there, your dream is my command
 Em7 Am7 D/F# 
Ai no corrida, i find myself
      Bm7 Em7 Am7 
No other thought, just you and nothing else
 Am7 Bm7 Em7 
You and nothing else

Break :     Em7 Am7 Bm7        4X
           
            Em7 G Bb A7 Em7 C# Em7 Am7 Bm7        2X

    Em7     
I hold you, I touch you
    Am7 Bm7 
In a maze can't find my way
    Em7            
I think you, I drink you
    Am7 Bm7 
I'm being served you on a tray
    A

Nobodys Baby Tabs by Sharon Jones And The Dap-Kings V2

 -------------------------------------------------------------------------------
             NOBODY'S BABY - SHARON JONES & THE DAP KINGS
-------------------------------------------------------------------------------
: Ignacio Mendez-Nunez
 ignacio.mendeznunez

Correction on the Chorus compared to the other version up.

Tuning: Standard
     1st Guitar                          while 2nd guitar does
                                                 Gm            C7
e|-----------------------------------------------3--3----xx----3--3----------|
B|-----------------------------------------------3--3----xx----5--5----------|
G|---------------------------------------------------------------------------|
D|---------------------------------------------------------------------------|
A|--------1-----------------1------------------------------------------------|
E|--1--3-----3--1-----1--3-----3--1------------------------------------------|


Chorus
    Am    Am    D7     D7     x  2       then end on     C7    the last time
e|-5------5------------------------------------------------------------------|
B|-5------5------3-----3---------------------------------1-------------------|
G|-5------5------5-----5---------------------------------3-------------------|
D|-7------7------4-----4---------------------------------2-------------------|
A|-7------7------5-----5---------------------------------3-------------------|
E|-5------5------------------------------------------------------------------|

Chorus Licks (take it slow to get the timing right!)
"I ain't Nobody's Baby.......

e|-14-14-14\12---12--12-12\10---10-10--10\8---8-8-8\7---7-7-7/5---3----------|
B|---------------------------------------------------------------------/7----|
G|-14-14-14\12---12--12-12\11---11-11--11\9---9-9-9\7---7-7-7\5---4----------|
D|---------------------------------------------------------------------/7----|
A|---------------------------------------------------------------------------|
E|---------------------------------------------------------------------------|

2nd Time around                           last hit............."get yourself a new one!"
e|-14-14-14\12---12--12-12\10---10-10--10\8----8-----------------------------|
B|---------------------------------------------------------------------------|
G|-14-14-14\12---12--12-12\11---11-11--11\9----9-----------------------------|
D|---------------------------------------------------------------------------|
A|---------------------------------------------------------------------------|
E|---------------------------------------------------------------------------|


************************************

| /   slide up
| \   slide down
| h   hammer-on
| p   pull-off
| ~   vibrato
| +   harmonic
| x   Mute note
| b   Bend

************************************

Tell Me Tabs by Sharon Jones And The Dap-Kings

 -------------------------------------------------------------------------------
                 TELL ME - SHARON JONES & THE DAP KINGS
-------------------------------------------------------------------------------
: Ignacio Mendez-Nunez
 ignacio.mendeznunez

Tuning: Standard
 Vamp on Abm...............then
e|--4--4--4--4---------------9--9--9--666-----222---2---------6--------------| Hard to hear this last part
B|--4--4--4--4--------------11-11-11--777-----444-----4-------6--------------| so I'm open to improvements!
G|--4--4--4--4--------------11-11-11--888-----444-------4-----6--------------|
D|---------------------------------------------------------------------------|
A|---------------------------------------------------------------------------|
E|---------------------------------------------------------------------------|

Verse and Chorus
    Db           Abm
e|----9---9------4--4--------------------------------------------------------|
B|----9---9------4--4--------------------------------------------------------|
G|---10--10------4--4--------------------------------------------------------|
D|---------------------------------------------------------------------------|
A|---------------------------------------------------------------------------|
E|---------------------------------------------------------------------------|
That's all there is to this song!


************************************

| /   slide up
| \   slide down
| h   hammer-on
| p   pull-off
| ~   vibrato
| +   harmonic
| x   Mute note
| b   Bend

************************************

Be Easy Tabs by Sharon Jones And The Dap-Kings V2

 -------------------------------------------------------------------------------
                        BE EASY - SHARON JONES & THE DAP KINGS
-------------------------------------------------------------------------------
: Ignacio Mendez-Nunez
 ignacio.mendeznunez

Tuning: Standard
 Intro                          this slide is very fast
e|---------------------------------------------------------------------------|
B|--8b--8b--8b-8b-8b--8------------------------------------------------------|
G|--8b--8b--8b-8b-8b--8------------------------------------------------------|
D|------------------------12--10---------------------------------------------|
A|--------------------------------11\10-----8b-------------------------------|
E|---------------------------------------------------------------------------|

Main Riff
e|--------10--------------------------10-------------------------------------|
B|--------10--------------------------10-------------------------------------|
G|--------11--------------------------11-------------------------------------| x4
D|-------------/12-10-----------------------/12-10---------------------------|
A|---------------------------------------------------------------------------|
E|--10-------------------9-10-----------------------9------------------------|

Some People say..................you gotta fight
e|--------10---------------------------------10------------------------------|
B|--------10---------------------------------12------------------------------|
G|--------11---------------------------------10------/12-10------------------|
D|-------------/12-10------------------------12----------------------------=-|
A|-----------------------------------9-10------------------------------------|
E|--10-------------------9-10----------------------------------9-------------|


Fill/Lick
e|---------------------------------------------------------------------------|
B|-------------8b-8b---------------------------------------------------------|
G|-------------8b-8b---------------------------------------------------------|
D|---12p10h12-----------12--10-----------------------------------------------|
A|---------------------------------------------------------------------------|
E|---------------------------------------------------------------------------|

@ 1:17 (Complicated but stick with me)

   F     G    D               Fast lick     C       G       A7  D   Csus4  C
e|---------------------------------------------------------------------------|
B|-10---12----7-----------------------------------------3----5---7----4----3-|
G|-10---12----7-----------------------------------------4----6---7----3----3-|
D|-10---12----7-----------------10----------5-----------5----5---7----3----3-|
A|-8----10----5-----------------10--8--7--5-5h7--5--5---5--------------------|
E|--------------------------------------------------5h7-3--------------------|


   F     G    D                      C     G    A    Bb
e|---------------------------------------------------------------/10--8--6---|
B|-10---12----7--------------------------------------------------------------|
G|-10---12----7--------------------------------------------------/10--8--7---|
D|-10---12----7----------10----------5-----5----7----8-----------------------|
A|-8----10----5----------10--8--7--5-5h7---5---7-----8-------8---------------|
E|-----------------------------------------3----5----6--8h10-----------------|


************************************

| /   slide up
| \   slide down
| h   hammer-on
| p   pull-off
| ~   vibrato
| +   harmonic
| x   Mute note
| b   Bend

************************************

When The Other Foot Drops Uncle Tabs by Sharon Jones And The Dap-Kings

 -------------------------------------------------------------------------------
         WHEN THE OTHER FOOT DROPS, UNCLE- SHARON JONES & THE DAP KINGS
-------------------------------------------------------------------------------
: Ignacio Mendez-Nunez
 ignacio.mendeznunez

Tuning: Standard
Intro
    C7 (with tremolo)                 B7
e|---------------------------------------------------------------------------|
B|----------5--------------5--------------------4-----------------4----------|
G|-------3----3---------3-----3--------------2-----2-----------2-----2-------|
D|----5---------5-----5---------5---------4-----------4-----4----------------|
A|--3---------------3-------------3----2-----------------2---------------2-1-|
E|---------------------------------------------------------------------------|
    A7                               G7
e|---------------------------------------------------------------------------|
B|-----------2----------------2----------------------------------------------|
G|--------0-----0----------0---------------------4-----------------4---------|
D|-----2----------2-----2--------------------3------3-----------3------------|
A|--0----------------0--------------------5-----------5------5---------0-2---|
E|--------------------------------5--4-3------------------3----------3-------|

e|---------------------------------------------------------------------------|
B|----------5--------------5--------------------4-----------------4----------|
G|-------3----3---------3-----3--------------2-----2-----------2-----2-------|
D|----5---------5-----5---------5---------4-----------4-----4----------------|
A|--3---------------3-------------3----2-----------------2---------------2-1-|
E|---------------------------------------------------------------------------|
    A7                               G7
e|---------------------------------------------------------------------------|
B|-----------2----------------2----------------------------------------------|
G|--------0-----0----------0---------------------4-----------------4---------|
D|-----2----------2-----2--------------------3------3-----------3------------|
A|--0----------------0--------------------5-----------5------5---------------|
E|--------------------------------5--4-3------------------3----------3--2----|

@0:36
"For a day will come....
  E7
e|-----------0-------------------0-------------------------------------------|
B|-----------0-------------------2-----------/5------------------------------|
G|-------1------1-------------2-----2--------/6------------------------------|
D|----2-----------2--------2-----------2-------------------------------------|
A|---------------------0-----------------------------------------------------|
E|-0-------------------------------------------------------------------------|

Chorus
                     A7  A7       E7  E7     (continues between these two chords for a while)
e|--4-----4----------5---5---------------------------------------------------|
B|--5--7--5--7--5----5---5------9--9-----------------------------------------|
G|--------------6----6---6------7--7-----------------------------------------|
D|-------------------5---5------9--9-----------------------------------------|
A|---------------------------------------------------------------------------|
E|---------------------------------------------------------------------------|

@2:07                         "You better pack up and run"
    C7 4x     B7  4x   A7 2x   G7 2x   F#7  A7    F#7   A7......fade out
e|--8-8-8-8--7-7-7-7---5-5-----3-3-----2----5-----2-----5--------------------|
B|--8-8-8-8--7-7-7-7---5-5-----3-3-----2----5-----2-----5--------------------|
G|--9-9-9-9--8-8-8-8---6-6-----4-4-----3----6-----3-----6--------------------|
D|--8-8-8-8--7-7-7-7---5-5-----3-3-----2----5-----2-----5--------------------|
A|---------------------------------------------------------------------------|
E|-------------------------------

Humble Me Tabs by Sharon Jones And The Dap-Kings

 -------------------------------------------------------------------------------
                     HUMBLE ME - SHARON JONES & THE DAP-KINGS
-------------------------------------------------------------------------------
: Ignacio Mendez-Nunez
 ignacio.mendeznunez

Tuning: Standard
Intro
e|---------------------------------------------------------------------------|
B|---------------------------------------------------------------------------|
G|---------------------------------------------------------------------------|
D|----------------------------2---2------------------------------------------|
A|--2-22-2-2-22-2-2--2-22-2-4---4--------------------------------------------|
E|---------------------------------------------------------------------------|

   E  Esus4  E   B B  E      E Esus4  E     B  Bb
e|---------------------------------------------------------------------------|
B|--0--0-----0---4-4--0------0--0-----0-----4--3-----------------------------|
G|--1--2-----1---4-4--1------1--2-----1-----4--3-----------------------------|
D|--2--2-----2---4-4--2------2--2-----2-----4--3-----------------------------|
A|--2--2-----2---2-2--2------2--2-----2-----2--1-----------------------------|
E|---------------------------------------------------------------------------|

   A               B                    E           B
e|---------------------------------------------------------------------------|
B|--------2---------------4-------------0--------------4---------------------|
G|------2---2-----------4---4-----------1------------4---4-------------------|
D|----2---------------4-------4-------2---2--------4-------4---------2---2---|
A|--0-----------1---2---------------2-------2----2---------------2h4---4-----|
E|--------------------------------0------------------------------------------|


   E  Esus4  E   B B  E      E Esus4  E     B  Bb
e|---------------------------------------------------------------------------|
B|--0--0-----0---4-4--0------0--0-----0-----4--3-----------------------------|
G|--1--2-----1---4-4--1------1--2-----1-----4--3-----------------------------|
D|--2--2-----2---4-4--2------2--2-----2-----4--3-----------------------------|
A|--2--2-----2---2-2--2------2--2-----2-----2--1-----------------------------|
E|---------------------------------------------------------------------------|

   A               B                    E           E7
e|---------------------------------------------------------------------------|
B|--------2---------------4-------------0-------------3----------------------|
G|------2---2-----------4---4-----------1-------------1----------------------|
D|----2---------------4-------4-------2---2--------0----0--------------------|
A|--0-----------1---2---------------2-------2----2--------2------------------|
E|--------------------------------0-------------0-----------0----------------|

"Don't let me"
  A          E          A         E
e|-------0---0-----------------0--0----------------0--0--------------0--0----|
B|-------2---0-----------------2--0----------------2--0--------------2--0----|
G|-----2-----1--------------2-----1--------------2----1------------2----1----|
D|---2-------2---2--------2-------2---2--------2------2----------2------2----| x2
A|-0---------2-----4-2--0---------2-----4-2--0--------2--------0--------2----|
E|----------------------------------------------------0--0-2-4----------0----|

"Don't Be afraid"  then to chorus again
e|---------------------------------------------------------------------------|
B|-------4-------------------------------------------------------------------|
G|-----4---4-----------------------------------------------------------------|
D|---4-------4---------------------------------------------------------------|
A|-2-----------2-------------------------------------------------------------|
E|---------------------------------------------------------------------------|

************************************

| /   sli

Keep On Looking Tabs by Sharon Jones And The Dap-Kings

 -------------------------------------------------------------------------------
               KEEP ON LOOKING - SHARON JONES & THE DAP-KINGS
-------------------------------------------------------------------------------
: Ignacio Mendez-Nunez
 ignacio.mendeznunez

Tuning: Standard


e|-/12-12-12\10-10-10-10/12-------/17--15-15-----15-15\12-12--10--10/14------|
B|---------------------------------------------------------------------------|
G|-/14-14-14\12-12-12-12\14-------/19--17-17-----17-17\14-14--12--12/14------|
D|---------------------------------------------------------------------------|
A|---------------------------------------------------------------------------|
E|---------------------------------------------------------------------------|

e|-12\10/12--10--7--3---0----------------------------------------------------|
B|---------------------------------------------------------------------------|
G|-14\12/14--12--9--5---2----------------------------------------------------|
D|---------------------------------------------------------------------------|
A|---------------------------------------------------------------------------|
E|---------------------------------------------------------------------------|

Verse Guitar 1
e|---5-----5-----5-----5----5-----5-----5------------------------------------|
B|---5-----5-----5-----5----5-----5-----5------------------------------------|
G|---5-----5-----5-----5----5-----5-----5------------------------------------|
D|---------------------------------------------------------------------------|
A|---------------------------------------------------------------------------|
E|---------------------------------------------------------------------------|
Verse Guitar 2 (on Guitar 1's off beats)
e|---------------------------------------------------------------------------|
B|--------------------------------------7---7--------------------------------|
G|-5--55-----7-7--5--5----7-------------7h9-7--7---7----7--------------------|
D|-5--55-----7-7--5--5----7-----5--5-----------7h9-7----7--------------------|
A|-7--77---7/9----7--7--7/9-----7--7-----------7-----9-----------------------|
E|---------------------------------------------------------------------------|

@0:48
Bridge
  Dm       x8 then back to previous part
e|-55x5----------------------------------------------------------------------|
B|-66x6----------------------------------------------------------------------|
G|-77x7----------------------------------------------------------------------|
D|---------------------------------------------------------------------------|
A|---------------------------------------------------------------------------|
E|---------------------------------------------------------------------------|

 @1:10       with palm mute and lots of wah
   Am   repeat until    D
e|-55x5---------------55x-5--------------------------------------------------|
B|-66x6---------------77x-7--------------------------------------------------|
G|-77x7---------------77x-7--------------------------------------------------|
D|---------------------------------------------------------------------------|
A|---------------------------------------------------------------------------|
E|---------------------------------------------------------------------------|

Then continues with previous parts (Verse, Bridge etc...)

************************************

| /   slide up
| \   slide down
| h   hammer-on
| p   pull-off
| ~   vibrato
| +   harmonic
| x   Mute note
| b   Bend

************************************

The Collection Song Tabs by Sharon Jones And The Dap-Kings

 -------------------------------------------------------------------------------
        THE COLLECTION SONG (BONUS TRACK) - SHARON JONES & THE DAP-KINGS
-------------------------------------------------------------------------------
: Ignacio Mendez-Nunez
 ignacio.mendeznunez

Tuning: Standard

Intro
e|-11--10---9----9-----------------------------------------------------------|
B|-11--10---9----9-----------------------------------------------------------|
G|-11--10---9----9-----------------------------------------------------------|
D|---------------------------------------------------------------------------|
A|---------------------------------------------------------------------------|
E|---------------------------------------------------------------------------|
Main Riff
   F9       Eb9
e|-8888-----6666-----9\8-888---6666------------------------------------------|
B|-8888-----6666-----9\8-888---6666------------------------------------------|
G|-8888-----6666-----9\8-888---6666------------------------------------------|
D|---------------------------------------------------------------------------|
A|---------------------------------------------------------------------------|
E|---------------------------------------------------------------------------|

We got a little bit of Nashville @0:45
over F     Eb                   F     Eb                 F      Eb
e|---------------------------------------------------------------------------|
B|---------------------------------------------------------------------------|
G|---------------------------------------------------------------------------|
D|--5/6-----------------------------3-------------------------3--------------|
A|------8--1---1----3-1----1---/5-----1----1---3-1---1--/5-----1---1---3-1--1|
E|-----------3---3------3----------------3----3-----3------------3---3----3--|

Back to Main Riff/Chorus until @1:50
                                                       Hit at "All I want to"
e|---------------------------------------------------------------------------|
B|-9-------------------------------------------------------------------------|
G|-7-------------------------------------------------------------------------|
D|-8-----6---6--------5---5-------4--4-------3---3------2---2----------------|
A|-----8---8---8-7--7---7---7-6-6--6---6-5-5---5--5-4-4---4----(3)-----------|
E|---------------------------------------------------------------------------|

Ghost Riders In The Sky chords – Stan Jones V2

 Ghost Riders In The Sky chords
Stan Jones (as performed by Vaughn Monroe)

Capo IV

 Am C Am Am C 
An old cowpoke went riding out one dark and windy day 
  Am C 
Upon a ridge he rested as he went along his way 
      Am C Am       
When all at once a mighty herd of red-eyed cows he saw 
   F Am 
A'plowin' through the ragged skies, and up a cloudy draw 

 C Am   
Yi-pi-yi-ay, Yi-pi-yi-o 
 F Dm Am 
Ghost herd in the sky 

       Am C 
Their brands were still on fire and their hooves were made of steel 
       Am C 
Their horns were black and shiny and their hot breaths he could feel 
   Am C Am 
A bolt of fear went through him as they thundered through the sky 
        F Am 
For he saw the riders coming hard and he heard their mournful cry 

 C Am   
Yi-pi-yi-ay, Yi-pi-yi-o 
 F Dm Am 
Ghost riders in the sky  

       Am C 
Their faces gaunt, their eyes were blurred, and shirts all soaked with sweat 
         Am C 
They're ridin' hard to catch that herd but they ain't caught them yet
         Am C Am 
They've got to ride forever on that range up in the sky 
    F Am 
On horses snortin' fire, as they ride on, hear their cry 

 C Am   
Yi-pi-yi-o, Yi-pi-yi-o 
 F Dm Am 
Ghost riders in the sky  

        Am C 
As the riders loped on by him, he heard one call his name 
         Am C 
"If you want to save your soul from hell a' ridin' on our range" 
       Am C Am 
"Then cowboy change your ways today or with us you will ride" 
    F Am 
"A-tryin' to catch the Devil's herd across these endless skies." 

 C Am   
Yi-pi-yi-ay, Yi-pi-yi-o 
 F Dm Am 
Ghost riders in the sky  
 C Am   
Yi-pi-yi-ay, Yi-pi-yi-o 

Aint Love A Lot Like That chords – George Jones

 Ain't Love A Lot Like That
George Jones

Tuning: Standard

This song hasn't been chorded yet either.. Honestly surprised..
This song pretty much repeats E, A, B, E the whole time. I couldn't find others that sounded good.


Intro
 E A B E 



Verse 1
         E A 
Well, a twister tore the roof off a grocery store
         B E 
Blew an Idaho potato through the hardwood floor
 E A 
Twirled granny's apron up around her head
     B E 
The cat's gone missin' and the dog is dead.



Chorus
 E A 
Well, ain't love a lot like that
 B E 
Ain't love a lot like that
 E A 
Unconditional, unpredictable
 B E 
Ain't love a lot like that?



Verse 2
 E A 
Just like Moses and the Red Sea water
   B E 
A little bit of faith and the ring I bought her
   E A 
I hit my knees and she took my hand
         B E 
And she led my heart to the promised land.



Chorus
 E A 
Well, ain't love a lot like that
 B E 
Ain't love a lot like that
 E A 
Unconditional, unpredictable
 B E 
Ain't love a lot like that?



Verse 3
           E A 
Well, the honeymoon's over and the work begins
    B E 
My baby says I'm gettin' on her nerves again
 E A 
One false move and an angry shout
     B E 
I'm sleepin' all olone on the fold-out couch.



Chorus
 E A 
Well, ain't love a lot like that
 B E 
Ain't love a lot like that
 E A 
Unconditional, unpredictable
 B E 
Ain't love a lot like that?


 E A B E   x2


 E A 
Well, ain't love a lot like that
 B E 
Ain't love a lot like that
 E A 
Unconditional, unpredictable
 B E 
Ain't love a lot like that?

 E A 
Unconditional, unpredictable
 B E 
Ain't love a lot like that?

 E A B E 
Ain't love a lot like that?

Duck Tales Tabs by Ron Jones

 This song is part of the childhood, and of many around the world, and it´s a very well 
composed song, catchy.
I´ve been with this song in my head for days, so I dicided to tab it. Thank you Ron 
Jones for such and wonderfull composition, it´s now part of our most intimate memories. So 
this is chords + melody. Feel free to remake , change or send sugestions. Free for all.

INTRO BASS
E|---------------------------------|
B|---------------------------------|
G|---------------------------------|
A|--2--2--2-----2-----2--2--2----2-| DACAPO
D|---------------------------------|
E|-0--0--0--0-0-----0--0--0--0-0---|


E|-0----------------------2-0--2-0-|
B|-0--------2--3--2--0----3-2--3-2-|
G|-1--1--4-----2-------2--2-1--2-1-|
A|-2-----------2----------4-2--4-2-|
D|-2-----------0----------0-2--0-2-|
E|-0------------------------0----0-|



E|-------------------0------2--4--2-|
B|-2------2----4-----2----2----4----|
G|-2----2------6--4--2--2------4----|
A|-2--2--------4-----2---------4----|
D|-x-----------x-----0---------2----|
E|-2-----------4--------------------|


E|-0-0--3-0--------------0---------0----------|
B|-0-0--3-0--------------1--3-1h3--3--3-1h3---|
G|-1-1----------------0--0---------2----------|
A|-2-2--------------0----2---------0----------|
D|-2-2----------0h2------3--------------------|
E|-0-0-0----0h3-------------------------------|

before key change
E|-------------------------2-----0h2------------------------------|
B|-2--------2----4------4--3-3-3----3-0----------4----------------|
G|-2--2-2h4-2-2--4--4h6----2----------1-1--------4----------------|
A|-2-------------4---------0----------2---4--2---4------4-6-4---4-|
D|-x-------------x--------------------2----------x--7-7-------7---|
E|-2-------------4--------------------0----------4----------------|


E|-2-2--5-2--------------2--0---0-2p0---0--|
B|-2-2--5-2--------------3----3---0---3----|
G|-3-3----------------2--2--------1--------|
A|-4-4--------------2----0--------2--------|
D|-4-4----------2h4---------------2--------|
E|-2-2-2----2h5-------------------0--------|

Jam Jones – Please Please chords

 It's a surprisingly simple song when you get the hang of it. It's
in 4/4 but it has kind of a 2/4 vibe to it.

Intro:

 G D7/F# Em Em D B7 Em G7 C D7 G 

Verse:
Hold that G like Snoop Dogg at the club

 G Am7/G C/G G   x2

 G Am7/G 
Just as I thought it was going alright
      C/G G 
You prove it all wrong when you turn out the light
 G Am7/G 
Just as you thought it was gettin' so hard
     C/G G 
You give it all up for the fear of the scar

Prechorus:

 C C/B Am C/G 
No one's to blame
 F Em Dsus4 D 
Who killed the flame?

Chorus:
 G D7/F# Em Em 
Please, please don't go
       D B7 Em 
Just come and say hello
     G7 C D7 G G/D 
My darling friend where's your golden glow?

 G D7/F# Em Em 
Please, please don't go
     D B7 Em 
My heart can tell you so
          G7 C D7 Em 
If it's over now how we gonna grow?

 B B7 G/D G7/D C Cm G 
Oooooooooooooooooooooooo


Verse:

 G Am7/G C/G G   x2

 G Am7/G  
Did you forget all the times that we had?
    C/G G 
I thought they were swell but I guess they were bad
 G Am7/G 
Just when you said you didn't need me anymore
   C/G G 
I fell to the floor, I can't take it anymore!!

Prechorus:

 C C/B Am C/G 
No one's to blame
      F Em Dsus4 D 
It's only a shame

Chorus:
 G D7/F# Em Em 
Please, please don't go
       D B7 Em 
Just come and say hello
     G7 C D7 G G/D 
My darling friend where's your golden glow?

 G D7/F# Em Em 
Please, please don't go
     D B7 Em 
My heart can tell you so
          G7 C D7 Em 
If it's over now how we gonna grow?

 B B7 G/D G7/D C Cm G 
Oooooooooooooooooooooooo

Bridge:
Here are the chords in the background. If you have a friend, have them solo.
Unless you're the star. Then you can solo and you're friend can play the
chords.

G7 (leading in)....

 C7 Eb7 D7 G7   x3

on the fourth time do it in 3/4 and then sklack back in to 4/4
3/4        4/4
C7   Eb7   D7      hold the D7 before going to the prechorus

Prechorus:

 C C/B Am C/G 
No one's to blame
 F Em Dsus4 D 
No one's to blaaaaaaaaaaaaaaaame

Chorus:
Ok for the last chorus do it quiet and soft the first time and build
intensity each time you repeat the progression.

 G D7/F# Em Em 
Please, please don't go
       D B7 Em 
Just come and

Tape Deck Tabs by Jack Jones

  Tofu (cs@moodynolan.com)
Artist: Jack Johnson
Song: Tape Deck

Jack playes this in Open Bb tuning since he's rockin' the guitar slide.

|--D--|
|--Bb-|
|--F--|
|--D--|
|--Bb-|
|--D--|

The entire song uses these 3 open chords with hammer ons the 4th string throughout.

Chords:

  Bb        Eb         F
|--0--|   |--5--|   |--7--|
|--0--|   |--5--|   |--7--|
|--0--|   |--5--|   |--7--|
|--0--|   |--5--|   |--7--|
|--0--|   |--5--|   |--7--|
|--0--|   |--5--|   |--7--|


You pick up on the exact strumming pattern and hammers by listening to the song, but 
they go something like below.

Verse:
            Bb                  Eb                  Eb               F
e|---0--0--0--0--0--0----5--5--5--5--5--5----5--5--5--5--5--5----7--7--7--7----|
B|---0--0--0--0--0--0----5--5--5--5--5--5----5--5--5--5--5--5----7--7--7--7----|
G|---0--0--2--0--0--2----5--5--7--5--5--7----5--5--7--5--5--7----9--9--9--7----|
D|---0--0--0--0--0--0----5--5--5--5--5--5----5--5--5--5--5--5----7--7--7--7----|
A|---0--0--0--0--0--0----5--5--5--5--5--5----5--5--5--5--5--5----7--7--7--7----|
E|---0--0--0--0--0--0----5--5--5--5--5--5----5--5--5--5--5--5----7--7--7--7----|

Transition to Pre-Chrous, just after the line "We sounded folk but we wanted to be punk..."

e|---7----6----5----|
B|---7----6----5----|
G|---9----8----7----|
D|---7----6----5----|
A|---7----6----5----|
E|---7----6----5----|

Pre-Chorus: (You can also mix in the transition walk down)

e|---5--5--5--5--5--5----7--7--7--7--7--7--|
B|---5--5--5--5--5--5----7--7--7--7--7--7--|
G|---7--7--5--7--7--5----9--9--7--9--9--7--|
D|---5--5--5--5--5--5----7--7--7--7--7--7--|
A|---5--5--5--5--5--5----7--7--7--7--7--7--|
E|---5--5--5--5--5--5----7--7--7--7--7--7--|

Chorus:
            Bb                  Eb                  F                   Eb
e|---0--0--0--0--0--0----5--5--5--5--5--5----7--7--7--7--7--7----5--5--5--5--5--5--|
B|---0--0--0--0--0--0----5--5--5--5--5--5----7--7--7--7--7--7----5--5--5--5--5--5--|
G|---0--0--2--0--0--2----5--5--7--5--5--7----7--7--9--7--7--9----5--5--7--5--5--7--|
D|---0--0--0--0--0--0----5--5--5--5--5--5----7--7--7--7--7--7----5--5--5--5--5--5--|
A|---0--0--0--0--0--0----5--5--5--5--5--5----7--7--7--7--7--7----5--5--5--5--5--5--|
E|---0--0--0--0--0--0----5--5--5--5--5--5----7--7--7--7--7--7----5--5--5--5--5--5--|

Slide Guitar Solo:

e|-0-/-12-12-12-12-12-12-12-12-12-12-12---5----0----5-\-0-----/-5-5-5-5-5-5-5-5-5-5-5-|
B|-0-/-12-12-12-12-12-12-12-12-12-12-12---5----0----5-\-0-----/-5-5-5-5-5-5-5-5-5-5-5-|
G|-0-/-12-12-12-12-12-12-12-12-12-12-12---5----0----5-\-0-----/-5-5-5-5-5-5-5-5-5-5-5-|
D|-0-/-12-12-12-12-12-12-12-12-12-12-12---5----0----5-\-0-----/-5-5-5-5-5-5-5-5-5-5-5-|
A|-0-/-12-12-12-12-12-12-12-12-12-12-12---5----0----5-\-0-----/-5-5-5-5-5-5-5-5-5-5-5-|
E|-0-/-12-12-12-12-12-12-12-12-12-12-12---5----0----5-\-0-----/-5-5-5-5-5-5-5-5-5-5-5-|

e|-----5-/-7----5-/-7-----5-/-7----------------|
B|-----5-/-7----5-/-7-----5-/-7----------------|
G|-----5-/-7----5-/-7-----5-/-7----------------|
D|-----5-/-7----5-/-7-----5-/-7----------------|
A|-----5-/-7----5-/-7-----5-/-7----------------|
W|-----5-/-7----5-/-7-----5-/-7----------------|

Kiss chords – Tom Jones

 
KISS - Tom Jones


                      A7 
You don't have to be beautiful to turn me on.


I just need your body baby from dusk 'til dawn.

                  D7 
You don't need experience to turn me out.

                       A7 
You just leave it all up to me,


I'll show you what it's all about.


                  E7 
Don't have to be rich to be my girl.

                  D7 
Don't have to be cool to rule my world.

                     E7 
Ain't no particular sign I'm more compatible with.

                  D7 E9 A7 
I just want your extra time and your  -  KISS!


                    A7 
You gotta not talk dirty baby, if you wanna impress me.


You can't be to flirty mama, I know how to undress me.

                D7 
Let me be your fantasy and maybe you could be mine.

                       A7 
You just leave it all up to me, we can have a good time.


                      E7 
You don't have to be rich to be my girl.

                      D7 
You don't have to be cool to rule my world.

                     E7 
Ain't no particular sign I'm more compatible with.

                  D7 E9 A7 
I just want your extra time and your  -  KISS!


Think I better dance now!


INSTRUMENTAL


           A7 
Women and girls rule my world, I say they rule my world.


Act your age mama not your shoe size, baby we could do the twirl.

                          D7 
You don't have to watch "Dynasty" to have an attitude.

                        A7 
You gotta leave it all up to me, my love will be your food.


                      E7 
You don't have to be rich to be my girl.

                      D7 
You don't have to be cool to rule my world.

                     E7 
Ain't no particular sign I'm more compatible with.

                  D7 E9 A7 
I just want your extra time and your  -  KISS!



 A7  = 575655   D7  = 557575   E7  = 779797   E9  = x76777


Enjoy!

I Always Get Lucky With You chords – George Jones

 I ALWAYS GET LUCKY WITH YOU
George Jones
A+ = X 0 3 2 2 1 = Aaug
D#dim = X 0 1 2 1 2   

Verse 1:
          A A +
I've had good luck, and bad luck
        D D#dim 
And no luck, it's true,
       A E A E   
But I always get lucky with you.

Verse 2:
           A A +
I've been turned on, and turned down
          D D#dim  
When the bars close at two,
       A E A A7  
But I always get lucky with you.

Chorus:
          D D#dim A E7 A  
I've had two strikes against me most all of the time
               B7 Bm7 E7 
And when it's down to just a phone call, I'm minus a dime.

Verse 3:
          A A +
I've had good days, and bad days,
     D D#dim  
But when the day is through
   A E A A 
I always get lucky with you
       A E D A 
Oh, I always get lucky with you.

Type Of Girl Tabs by Danko Jones

 Type Of Girl
Danko Jones
Rock And Roll Is Black And Blue


  [Intro]
|-------------------------------------------------------------------|
|-------------------------------------------------------------------|
|-------------------------------------------------------------------|
|--------------------------------------------------4444444444444444-|
|--------------------------------------------------4444444444444444-|
|--------------------------------------------------2222222222222222-|

She's the type of girl all the other boys want to know



  [Verse1]
|----------------|-----------|     |------------------|
|----------------|-----------|     |------------------|
|----------------|-----------|     |------------------|
|-11—-6—-8-8--4--|-11--8--6--|  x4 |-6666666666666666-|
|-11—-6--8-8--4--|-11--8--6--|     |-6666666666666666-|
|--9--4--6-6--2--|--9--6--4--|     |-4444444444444444-|

You want to know what's hiding 
behind those blue eyes, baby!

Don't care how good she looks

She's shook and you know it

I bet there's crazy going on in her mind


She'll be a helluva time but nickel 
and dime
And when the tables turn you know
 who's gonna get burned
Don't think I have to spell it out, no matter what's out of her mouth

If you listen you get what you deserve
Baby, baby, baby!



  [Chorus]
|--------------------------------|
|--------------------------------|
|--6-6---------------------------|
|--6-6----6-6----4-4----44444466-|  x2
|--4-4----6-6----4-4----44444466-|
|---------4-4----2-2----22112244-|

She's the type of girl all the other boys 
want to know
She looks good but you know it's all just
 for show


|--------------------------------------|----|
|--------------------------------------|----|
|--66666666----------------------------|-6--|
|--66666666-66666666-44444444-44444466-|-6--|
|--44444444-66666666-44444444-44444466-|-4--|
|-----------44444444-22222222-22112244-|----|

Yesterday she winked at me but
 nothing more




  [Verse2]
|----------------|-----------|     |------------------|
|----------------|-----------|     |------------------|
|----------------|-----------|     |------------------|
|-11—-6—-8-8--4--|-11--8--6--|  x4 |-6666666666666666-|
|-11—-6--8-8--4--|-11--8--6--|     |-6666666666666666-|
|--9--4--6-6--2--|--9--6--4--|     |-4444444444444444-|

Don't you take it from me 
I only know what 
I'm talking about

I've had it done to me too many times

But it's too late when you realize


That there's something about her that
 makes you walk on the ledge
Don't try to skim on the lovin' this ain't no 
breakfast in bed
It's gonna take what you got and even that 
ain't enough
You're gonna live these words I said
Baby, baby, baby!



  [Chorus]
|--------------------------------|
|--------------------------------|
|--6-6---------------------------|
|--6-6----6-6----4-4----44444466-|  x2
|--4-4----6-6----4-4----44444466-|
|---------4-4----2-2----22112244-|

She's the type of girl all the other boys 
want to know
She looks good but you know it's all just 
for show


|--------------------------------------|
|--------------------------------------|
|--66666666----------------------------|
|--66666666-66666666-44444444-44444466-|  x2
|--44444444-66666666-44444444-44444466-|
|-----------44444444-22222222-22112244-|

Yesterday she winked at me but
 nothing more
She's the type of girl all the other boys want to know



  [Bridge]
|---------------------------------------------------------------------|
|---------------------------------------------------------------------|
|---------------------------------------------------------------------|
|-8888888888888888-4444444444444444-6666666666666666-4444444444444444-| x2
|-8888888888888888-4444444444444444-6666666666666666-4444444444444444-|
|-6666666666666666-2222222222222222-4444444444444444-2222222222222222-|

When you've got diamonds for eyes life lets
 yo