Tag: lang

Kung Di Rin Lang Ikaw chords by December Avenue feat. Moira Dela Torre

[Verse 1]
       E                     G#m
Kung hindi rin lang ikaw ang dahilan
    Amaj7                    B
Pipilitin ba ang puso kong hindi na masaktan?
       E           G#m
Kung hindi ikaw ay hindi na lang
    Amaj7                    B
Pipilitin pang umasa para sating dalawa

[Pre-Chorus]
  Amaj7           B
Giniginaw at hindi makagalaw
      G#m                  A   -    B         E
Nahihirapan ang pusong pinipilit ay ikaw

[Chorus]
            G#m
Kung di rin tayo sa huli
   A                    B               E
Aawatin ang sarili na umibig pang muli
            G#m
Kung di rin tayo sa huli
   A                       B
Aawatin ba ang puso kong ibigin ka?

[Instrumental]
E G#m A B

[Verse 2]
     E                       G#m
Kung hindi rin lang ikaw ang dahilan
     Amaj7                      B
Pipiliin bang umiwas ng hindi na masaktan?
       E            G#m
Kung hindi ikaw ay sino pa ba?
       Amaj7               B
Ang luluha sa umaga para sating dalawa

[Pre-Chorus]
  Amaj7           B
Bumibitaw dahil di makagalaw
      G#m                  A   -    B           E
Pinipigilan ba ang puso mong iba ang sinisigaw?

[Chorus]
            G#m
Kung di rin tayo sa huli
   A                    B               E
Aawatin ang sarili na umibig pang muli
            G#m
Kung di rin tayo sa huli
   A                       B
Aawatin ba ang puso kong ibigin ka?

[Bridge]
  Amaj7          B
Naliligaw at malayo ang tanaw
      G#m                     A    -    B
Pinipigilan na ang pusong pinipilit ay ikaw

[Instrumental]
E G#m A B     E

[Chorus]
            G#m
Kung di rin tayo sa huli
   A                    B               E
Aawatin ang sarili na umibig pang muli
            G#m
Kung di rin tayo sa huli
   A                       B            E
Aawatin ba ang puso kong ibigin ka?
     G#m
Kaya bang umibig ng iba?
    A                      B            E
(Aawatin ba ang puso kong ibigin ka?)
     G#m
Papayagan ba ng puso kong ibigin ka?
    A                      B
(Aawatin ba ang puso kong ibigin ka?)

[Outro]
Amaj7 F#m Amaj7 F#m

Pero Pangako Ko Google Mo Lang chords – Sponge Cola

 intro: F#-- strumming lang

eto na tonyasviray!!! hope you enjoy guys!!!

key of F#

verse
 F# Bbm B 
oh.. sanay mapangiti kita sasarap ang bagong kainan na'to

    C# 
na bagong hanap lang

 F# Bbm B 
oh.. sanay mapangiti kita sa manikang 'to na kapangalan mo
            C#  
pinagawa ko'pa 

chorus
              Ebm C# F#  -  C#/F  -  Ebm 
ang daming bagay na hindi ko'pa ala.......m
         B F# B  -  Bbm  -    G#m F# 
pero pangako ko sa puso ko ikaw lang ang laman


verse2
 F# Bbm B 
oh.. nais kong awitan ka ng paborito mong kanta ng idol mo
     C# 
si-nearch ko kanina 
 F# Bbm B 
oh.. sanay mabighani ka hahabulin ko ang abs ni brad pitt 
                  C# 
sa fight club si-nearch kong diet nya


repeat chorus

adlib

parang F# lang un eh.

last chorus
              Ebm C# F#  -  C#/F  -  Ebm 
ang daming bagay na hindi ko'pa ala.........m
         B F# 
pero pangako ko sa puso ko 
 B  -  Bbm  -  G#m B  -  Bbm  -  G#m B  -  Bbm  -  G#m B  -  Bbm  -  G#m 
hanapin man(hanapin man) i-google man(i-google man)
 B  -    C#  -  B/Eb C#/F  -  F# 
ikaw lamang  lamang

Pangarap Lang Kita Tabs – Parokya Ni Edgar V10

 By GuitarTutee

Standard Tuning:
Capo on 1st Fret
Intro:
e|--------------------------------0---------------------------|
B|-----------3---0------------3-------------------------------|
G|----0-------0--------0-------0------------------------------|
D|---2-2--------------2-2-------------------------------------|
A|--3-------5--------3-------5--------------------------------|
E|---------------0----------------0---------------------------|

e|------------------------------------------------------------|
B|-----------3------------------------------------------------|
G|----0-------0----0-0-0-2----0------0-----0------------------|
D|---2-2-------4--------0----2-2------4-----------------------|
A|--3-------5---------------3-------5-------------------------|
E|----------------3-2-0--------------------3------------------|

Verse:
e|------------------------------------------------------------|
B|-----------3---0--------------------------------------------|
G|----0-------0--0------------0------0-----0------------------|
D|---2-2---------2--(3x)-----2-2------4-----------------------|
A|--3-------5----2----------3-------5-------------------------|
E|---------------0------------------------3-------------------|

e|------------------------------------------------------------|
B|-----------3---0--------------------------------------------|
G|----0-------0--0--------------------------------------------|
D|---2-2---------2--(2x)--------------------------------------|
A|--3-------5----2--------------------------------------------|
E|---------------0--------------------------------------------|

e|------------------------------------------------------------|
B|-----------3------------------------------------------------|
G|----0-------0----0-0-0-2----0------0-----0------------------|
D|---2-2-------4--------0----2-2------4-----------------------|
A|--3-------5---------------3-------5-------------------------|
E|----------------3-2-0--------------------3------------------|

Chorus:
e|------------------------------------------------------------|
B|--0----3-----0---------0-----3--------------0---3--2-----0--|
G|--0----0-----0---------0-----0-----0-0-0-2--0---0--0-----2--|
D|--2----4-----2--(2x)---2-----4----------0---2---4--0-----2--|
A|--3----5-----2---------3-----5--------------3---5--------0--|
E|-------------0--------------------3-2-0------------3--------|

Ako Na Lang Tabs – Zia Quizon

 -------------------------------------------------------------------------------
                           Ako nlang sana - Zia Quizon
-------------------------------------------------------------------------------
:Eirol Martin
https://www.facebook.com/solidben10

U can add vibrato if u want
Tuning:STANDARD

e|------10/11-11-11--9-------------------------------------------------------------|
B|--9-------------------9--11/12--9--12-12/14-14-13----------------------------------------|
G|---------------------------------------------------------------------------|
D|---------------------------------------------------------------------------|
A|---------------------------------------------------------------------------|
E|---------------------------------------------------------------------------|

e|----10/11-11-11-12-14--14/16-12-----------------------19-18-17---------------------------------------
B|-9-----------------------------12--9-12-12h14-14/17----------------------------------------|
G|---------------------------------------------------------------------------|
D|---------------------------------------------------------------------------|
A|---------------------------------------------------------------------------|
E|---------------------------------------------------------------------------|

Intro chords: E7-A7-Am7
Verse: E7-A7-Am7
Refrain use barr: G#m-A-Am-G#m-(G#m-Gm-F#m-E)fast switching here
                  G#m-A-Am-G#m-Am       
Chorus: E7-A7-Am7

Naghahanap ka ng maaya
Pagkat sadyang wala kang magawa
Nagsasayang ng bawat oras sa wala
Hala

Na search mo nang lahat sa internet
Naubos na ang load sa kakatext
Naghihintay ka lang ng may makukulit
Ulit

What are you waiting for
Call my number
Knock on my door
Nandito lang ako
How I wish you'd let me know

Kung sinu-sino pang tinatawagan mo
Nandito lang naman ako
At kung saan-saan ka pa naghahanap
Nandito lang naman ako
Kung sinu-sino pang tinatawagan mo
Nandito lang naman ako
At kung saan-saan ka pa naghahanap
Nandito lang naman ako

Ako na lang sana
Tayo na lang dal'wa
Sana nalaman mo pala
Ako na lang sana

Ako na lang kung pwede lang I wish
Ako na lang ako na lang I guess
Ako na lang ang paborito mong mamiss
Oh yes

Hindi ko babasagin ang 'yong trip
Whatever man ang gusto mong gimmick
Sabay sa jamming at ka-duet mo sa gig
Astig

What are you waiting for
Call my number
Knock on my door
Nandito lang ako
How I wish you'd let me know

Kung sinu-sino pang tinatawagan mo
Nandito lang naman ako
At kung saan-saan ka pa naghahanap
Nandito lang naman ako
Kung sinu-sino pang tinatawagan mo
Nandito lang naman ako
At kung saan-saan ka pa naghahanap
Nandito lang naman ako
Ako nalang....
ako nalang...
ako nalang...
ako nalang...
Kung sinu-sino pang tinatawagan mo
Nandito lang naman ako
At kung saan-saan ka pa naghahanap
Nandito lang naman ako
Kung sinu-sino pang tinatawagan mo
Nandito lang naman ako
At kung saan-saan ka pa naghahanap
Nandito lang naman ako
Ako nalang sana...


Sieben Tage Lang Was Wollen Wir Trinken chords – Bots V3

 Am (4x)
                 Am G 
Was wollen wir trinken, sieben Tage lang,
                F G Am 
was wollen wir trinken, so ein Durst.
                 Am G 
Was wollen wir trinken, sieben Tage lang,
                F G Am 
was wollen wir trinken, so ein Durst.
           C F C 
Es wird genug für alle sein, 
               Am G 
wir trinken zusammen, roll das Fass mal rein, 
               F G Am 
wir trinken zusammen, nicht allein.
           C F C 
Es wird genug für alle sein, 
               Am G 
wir trinken zusammen, roll das Fass mal rein, 
               F G Am 
wir trinken zusammen, nicht allein.


                 Am G 
Dann wollen wir schaffen, sieben Tage lang,
                 F G Am 
dann wollen wir schaffen, komm fass an!
                 Am G 
Dann wollen wir schaffen, sieben Tage lang,
                 F G Am 
dann wollen wir schaffen, komm fass an!
               C F C 
Und dass wird keine Plackerei, 
                Am G 
wir schaffen zusammen, sieben Tage lang, 
               F G Am 
wir schaffen zusammen, nicht allein.
               C F C 
Und dass wird keine Plackerei, 
                Am G 
wir schaffen zusammen, sieben Tage lang, 
               F G Am 
wir schaffen zusammen, nicht allein.

 Am G F G Am Am G F G Am C F C Am G F G Am C F C Am G F G Am Am G 
Jetzt müssen wir streiken, keiner weiß wie lang,
            F G Am 
ja für ein Leben ohne Zwang.
                  Am G 
Jetzt müssen wir streiken, keiner weiß wie lang,
            F G Am 
ja für ein Leben ohne Zwang.
                 C F C 
Dann kriegt der Frust uns nicht mehr klein,
              Am G 
wir halten zusammen, keiner kämpft allein
             F G Am 
wir gehen zusammen, nicht allein. 
                 C F C 
Dann kriegt der Frust uns nicht mehr klein,
              Am G 
wir halten zusammen, keiner kämpft allein
             F G Am 
wir gehen zusammen, nicht allein. 

             Am G 
La la la la lai la, la la la la,
              F G Am 
la la la la lai la, la la la.
             Am G 
La la la la lai la, la la la la,
              F G Am 
la la la la lai la, la la la.
          C F C 
La la la lai la, la la la.
             Am G 
La la la la lai la, la la la la,
              F G Am 
la la la la lai la, la la la.
          C F C 
La la la lai la, la la la.
             Am G 
La la la la lai l

Panaginip Lang chords – Alex Gonzaga

 Capo on 1st Fret

1st verse:

     F C 
Panaginip lang ba nung ika'y nakilala

     G Am Em 
Katabi sa klase, chikahan ang naging hobby

     F C 
Panaginip lang ba nung ika'y napatawa

      G 
Sa matalik na kaibigan

      Am 
Nang hindi namamalayan

Pre-Chorus:

 F C 
 Hindi ko inakalang

 G Am Em 
 Doon pala nagsimula

 F C 
 Love story'ng hindi inaasahan

 G Am 
 Sa huli tayo pala

    Em F 
Sa isa't-isa-------

Chorus:

      F C G 
Magkahawak ang mga kamay

               Am Em 
Magkasabay sa lakad ng buhay

 F C G Am Em 
 Ang araw at ang buwan na ang nagsasabing

  F C G 
Ako'y sayo lamang at

         Am Em F C G 
Ikaw ay para sakin lamang

   Am Em F C G 
Parang panaginip lamang

   Am Em F C G Am 
Parang panaginip lamang

2nd verse:

     F C 
Panaginip lang ba nung ika'y nakasama

    G Am Em 
Sa ating eskwela at ikaw ay pumoporma

     F C 
Isa lang ang nasa isip at wala nang iba

        G Am 
Gulat ako noong sinabi mong mahal na mahal kita

Pre-Chorus:

 F C 
 Hindi ko inakalang

 G Am Em 
 Doon pala nagsimula

 F C 
 Love story'ng hindi inaasahan

 G Am 
 Sa huli tayo pala

    Em F 
Sa isa't-isa-------

Chorus:

      F C G 
Magkahawak ang mga kamay

               Am Em 
Magkasabay sa lakad ng buhay

 F C G Am Em 
 Ang araw at ang buwan na ang nagsasabing

  F C G 
Ako'y sayo lamang at

         Am Em F C G 
Ikaw ay para sakin lamang

   Am Em F C G 
Parang panaginip lamang

   Am Em F C G Am 
Parang panaginip lamang

Interlude:

 F C G Am 
 Parapan parapan, parang panaginip lamang

 F C G Am 
 Parapan parapan, parang panaginip lang

 F C G Am F 
 Parapan parapan, parang panaginip lamang-------

3rd verse:

     F C 
Panaginip lang ba nung ikaw ay nayakap

     G Am Em 
Madilim ang ulap at ang langit ay umiiyak

 F C G 
Pawis sa palad sumasama na sa luha at ulan

                  Am 
Nung sinabi kong mahal na rin kita

Pre-Chorus:

 F C 
 Hindi ko inakalang

 G Am Em 
 Doon pala nagsimula

 F C 
 Love story'ng hindi inaasahan

 G Am 
 Sa huli tayo pala

    Em F 
Sa isa't-isa-------

Chorus:

      F C G 
Magkahawak ang mga kamay

               Am Em 
Magkasabay sa lakad ng buhay

 F C G Am Em 
 Ang ar

Hanggang Dito Na Lang chords – Jimmy Bondoc

 CHORDS and INTRO:
 G  -  Cadd9  (lahat po yun. Tinesting ko lang tutal wala naman chords na available dito try nyo.)

 G Cadd9 
Akala ko’y habangbuhay tayo
Akala ko’y hanggang dulo
Kay haba pa ng kalsada
Dito na ba tayo bababa
Kung ganito na nga ba ang usapan
Kung dito na ang hangganan
Dapat sigurong iwasan
Ang mga minsang kamustahan
Mga nakasanayan
Dapat ng kalimutan
Upang di tayo magkasakitan

 G Cadd9 
Hanggang dito na lang
Hanggang dito na lang
Ikaw ba ang nagbago
O ako
O tayo
Baka tayo

Hanggang dito na lang
Hanggang dito na lang
Kung tunay ang paalam
Wag ka ng magparamdam
Dahil humihirap lang
Hanggang dito na lang

Akala ko’y habangbuhay ang awit
Akala koy hanggang langit
Kay haba pa ng kantahan
Dito na ba tayo tatantan
Kung ganito na nga ang tadhana
Sarang pinto at bintana
Dapat sigurong iwasan ang pagkatok sa tin ng paraan
Mga nakaugalian dapat ng pagbawalan
Sunugin na ang mga larawan

Hanggang dito na lang
Hangang dito na lang
Ikaw ba ang nagbago
O ako
O tayo
Baka tayo

Hanggang dito na lang
Hangang dito na lang
Kung tunay ang paalam
Wag ka ng magparamdam dahil humihirap lang

Hanggang dito na lang
Ang ganda na sana
Bakit biglang nag-iba
Ikaw ba ang nagbago
O ako
O tayo
Baka tayo

Hanggang dito na lang
Hanggang dito na lang
Kung tunay ang paalam wag ka ng magparamdam
Dahil humihirap lang
Hanggang dito na lang

Pangarap Lang Kita Tabs by Parokya Ni Edgar V10

 -------------------------------------------------------------------------------
                            PANGARAP LANG KITA - Parokya ni Edgar
-------------------------------------------------------------------------------
:Randy Andal Ante
barakotayo

Tuning: Standard
 Instrumental version
 Acoustic guitar


 Capo on 3rd fret


   Intro short version
e|---------------------------------------------------------------------0-0-0-------|
B|--------------------------------------0--4h--0-------------2--4h--2--0-0-0-------|
D|---2---4-------------4---2--4~---2--4-------------4--2--4------------0-0-0-------|
A|-3---5-------------5---3-------3--5-------------5--3-----------------2-2-2-------|
E|---------------------------------------------------------------------3-3-3-------|

  verse 1
e|------------------------------------------------------------------------------------|
B|---------3--0---0-0----------0--3--0---3------------3--0--5p--0--3p--0--------------|
G|------0-------2---0--------0---------2---2--0--0--3-------------------0-0-0---------|
D|--2--2------------2---2--2------------------2-------------------------0-0-0---------|
A|-3----------------3--3----------------------3-------------------------2-2-2---------|
E|----------------------------------------------------------------------3-3-3---------|
                                             di tulad sa yo   imposible

e|-------------------------------------------------------------------------------|
B|-----------0-3-0-----------------0-3-------------------------------------------|
G|----0--2h---------0-0-0-0----0-2------4--2--0--2~~-----------------------------|
D|--2---------------2-2-2-2---2--------------------------------------------------|
A|-3----------------3-3-3-3--3---------------------------------------------------|
E|-------------------------------------------------------------------------------|
                               akoy dukhaaaaaaaaaa
e|------------------------------------------------------------------------------|
B|--------0--5h-------------0--0--5h--0--3h--0----------------------------------|
G|---0-2--------0--4--0--2------------------------------------------------------|
D|--2---------------------------------------------------------------------------|
A|-3----------------------------------------------------------------------------|
E|------------------------------------------------------------------------------|
  sa tv                          mangyayareee


   Chorus
e|---------------------------------------------------------------------------|
B|-0--0--0--0--0--3--3--3---3--0--0--0--0--0---0--0--0--0--0--3--3--3--3--3--|
G|-0--0--0--0--0--2--2--2---2--0--0--0--0--0---0--0--0--0--0--2--2--2--2--2--|
D|-2--2--2--2--2--0--0--0---0--0--0--0--0--2---2--0--0--2--2--0--0--0--0--0--|
A|-3--3--3--3--3--0--0--0---0--2--2--2--2--3---3--2--2--3--3--0--0--0--0--0--|
E|-0--0--0--0--0--0--0--0---0--3--3--3--3------3--3--------------------------|
                           WALA AKONG MAGAGAWA       TANGGAP     KO    TO
e|-----------------------------------------------------------------------------------|
B|-0--0--0--0--0--0--0--0--0---------------------------------------------------------|
G|-0--0--0--0--0--0--0--0-0----0--0-2--2--4H--2--0-----------------------------------|
D|-0--0--0--0--2--2--2--0--0---------------------------------------------------------|
A|-2--2--2--2--3--3--3--0--0---------------------------------------------------------|
E|-3--3--3--3-----------0--0---------------------------------------------------------|
     AKING   SINTAAAAAA        PANGARAP LANG KITA AH..

   play the intro, then verse again



************************************

| /   slide up
| \   slide down
| h   hammer-on
| p   pull-off
| ~   vibrato
| +   harmonic
| x   Mute note
| b   Bend
| pb  Pre-bend
| br  Bend release
| pbr Pre-bend release
| brb Bend rele

We Are The Same chords – Jonny Lang

 
Hey, I'm not 100% about the refrain but think it sounds accurate. 
Feel free to comment. Great song!


CAPO fret 2 


Asus  = [x x 2 2 3 0]
Fsus  = [x x 3 3 1 1]
Gsus  = [x 3 0 0 3 3]
Dsus  = [x x 0 2 3 3]



[intro - vocal]

We are all waking up...
from a long dream...
And though we drink the same cup... 
some of us...still thirsty


[Verse] 

 Am  
Show your heart, a show of hands, if you ve ever had a story you couldnt tell
 Dm 
Well youre not alone,
 Am 
It fell apart, Sinking sand, Life is hard I understand
 Dm 
I got one of my own
 Am 
Read the book, it blew my mind, I guess I didnt see what was between the lines
 Dm 
Is where the story was
 Am 
Broke my heart, I lost my way, All the things we stood for back in the day
 Dm 
They aint holding up


[Bridge] 


 Dm E Am Dm 
So now that we settled up, theres no fight left in us
 Dm E Am Dm 
We just got to give it up, cause we have the perfect love
 Dm E Am Dm 
Yeah just got to give it up, cause weve got the perfect love


[Ref]


 Asus A Fsus F 
The world keeps spinning round, another sun goes down, 
         Gsus G Dsus D 
and still we re sleeping in this bed we made, 
 Asus A Fsus F 
but tonight I dream again, and in my dream I see 
     Gsus G Dsus D 
in you no shame, we are the same



[Verse 2] 

Lost your job, times are tight, trying to hold it down, do whats right
Heavy on your mind
Got in some trouble, took a little drink, trying to wash away, the same stain
Just a cup of wine

I remember in the day when we were young, always heard a change was gonna come, 
I wonder, is it too late
We road hard on what we believed in, for every blow we gave new chin thicker skin, 
but theres a better way


[Bridge] 

Why dont we just lay the weapons down
never shoulda picked them up
Look whos the big man now, no need to act so tough
we ve got the perfect love, We ve got the perfect love 
we ve got the perfect love, we ve got the perfect love


[Ref]

The world keeps spinning round, another sun goes down
and still we are sleeping in this bed we made 
but tonight I dream again, and in my dream I see in you no shame, 
we are the same

And as we turn the tide, and learn to live 
with no disguise no blame, only love remains
and as the sun will rise, and we ll walk in the light, 
as one someday, We are oh we are


[Second bridge, or whatever its called] 

         A C G F 
We are all, waking up, to a light, that we ve never seen 
         A C G F 
From the dust, rising up, we ll finally see the sun...


(During solo, same as ref.) 


The world keeps spinning round, another sun goes down
and still we re sleeping in this bed we made 
but tonight I dream again, and in my dream I see in you no shame, 
weare the same

And as we turn the tide, and learn to live 
with no disguise no blame, only love remains
and as the sun will rise, and we ll walk in the light, 
as one someday, We are oh we are

Ikaw Lang Sa Akin chords – Jonalyn Viray

 Ikaw Lang sa Akin

Intro:
 A C#m - F#m Bm C#m E A9 A D E A9 A 
Bakit ikaw ay ‘di ko na makalimutan
 D E C#m F#m 
Lagi kang naroon sa king ‘isipan
       C#m F#m 
Ba’t nga ba ganyan
    Bm A E 
Sa puso ang nararamdaman

 A9 A D E A9 A 
Sana laman ng puso koý iyong malaman
 D E C#m F#m 
Araw gabi ikaw sa ‘king isipan
       C#m F#m 
Kung ‘di mo alam
    Bm A/C# E 
Palaging ikaw ang mahal


Chorus
         A 
Sa akiý sabihin mo
      F#m D E  
Ako ang nandyan sa puso mo
          A  
Bakit di Makita
    F#m Bm 
Sa kilos at mga galaw ko
    C# F#m F#m/F 
Naiinip na ang puso ko’t damdamin
     E E/Eb D D/C# F#m 
Kay hirap isipin kung bakit ‘di mo mapansin
     Bm C#m D E A D 
Na ikaw ang lahat at sadyang ikaw lang sa akin

Repeat Verse 2:
Repeat Chorus

 G A D 
Kailan ka ba kikilos at sasabihin 
       F#m Bm DM7/Eb Bm E F 
Mahal mo ang tulad kong umaasa at naghihintay sa’yo

Chorus
         Bb 
Sa akiý sabihin mo
      Gm Eb F  
Ako ang nandyan sa puso mo
          Bb 
Bakit di Makita
    Gm Cm 
Sa kilos at mga galaw ko
    D Gm Gm/Gb 
Naiinip na ang puso ko’t damdamin
     F F/E Eb Eb/D Gm 
Kay hirap isipin kung bakit ‘di mo mapansin
     Cm Dm Eb F Bb Eb 
Na ikaw ang lahat at sadyang ikaw lang sa akin

Aud Lang Syne Tabs by Kurt Nilsen

 "Auld Lang Syne" - Cover by Kurt Nilsen

Beautiful christmas song and quite easy to play. 

Standard tuning
Capo on 1. 


Only four chords used:

D:     000232
Bm:    024432
A:     002220
G:     320033



Intro:
          D       Bm                 x2
|----------------------0----------------------------------------------------|
|---------3----------3------------------------------------------------------|
|-------2---2---------------------------------------------------------------|
|-----0------------4--------------------------------------------------------|
|----------------2----------------------------------------------------------|
|---------------------------------------------------------------------------|

Vers: 

Should all............ be...................never............life
         D                    A                    Bm               G
|-----------0----------------------------------------0---------------3-----|
|-------3---------3--------------2-----------------------2--------------2--|
|----2----2----2-----2------2--------2------------4----4---4-----0----3--3-|
|--0----------------------2---2----2---2--------4---4----------0---0-------|
|-----------------------0---------------------2----------------------------|
|-------------------------------------------------------------3------------|

..all.................be...................auld......lang....syne
   D                    A                     G       A      D
|-----------0-------------------------------------------------------0-------|
|-------3---------3--------------2----------------2-------2-----3-------2---|
|----2----2----2-----2------2--------2----------0-------2-----2---2---3---3-|
|--0----------------------2---2----2---2------0-------2-----0---------------|
|-----------------------0---------------------------0-----------------------|
|-------------------------------------------3-------------------------------|


Repeat throughout the song. Good luck!

Eurika-basta Alam Ko Lang chords – Joshua Soriano

 

intro:
 D A Bm F#m G D G A D A Bm F#m G D G A  
Di ka maalis sa aking isip
Mula ng makilala may bagong nadama

 D A Bm F#m G D G A  
Kapag kausap ka... 
Damdamin ay sumasaya
Bakit ba naiinis pag may kasama kang iba

 Bm F#m Bm A 
Sabi raw nila ganito pag umiibig na

 G D G A 
Pero di pa 'ko sigurado sa nadarama

 D A Bm F#m G D G A  
Basta alam ko lang ako ay masaya sa piling mo
Pag di ka natatanaw
Nalulungkot ang puso ko

 D A Bm F#m G D G A  
Basta alam ko lang ikaw ang hanap ng aking mata
Kahit di sinasadya
Laging naiisip ka

 Bm F#m G D 
Pagibig ba ito o humahanga lang sayo

 G D G A D 
Basta alam ko lang ako ay masaya sa piling mo

 D A Bm F#m G D G A  
Ako'y nalilito kapag katabi ka
Ang iyong ngiti sa akin ay nagpapakaba

 Bm F#m Bm A 
sabi daw nila ganito pag umiibig na

 G D G A 
Pero di pa ako sigurado sa nadarama

 D A Bm F#m G D G A  
Basta alam ko lang ako ay masaya sa piling mo
Pag di ka natatanaw
Nalulungkot ang puso ko

 D A Bm F#m G D G A  
Basta alam ko lang ikaw ang hanap ng aking mata
Kahit di sinasadya
Laging naiisip ka

 Bm F#m G D 
Pagibig ba ito o humahanga lang sayo

 G D G A D 
Basta alam ko lang ako ay masaya sa piling mo

 Bm F#m G D 
Pagibig nga kaya ang nadarama ngayon

 G D G A 
Sana'y malinawan din sa tamang panahon

 D A Bm F#m G D G A  
Basta alam ko lang ako ay masaya sa piling mo
Pag di ka natatanaw
Nalulungkot ang puso ko

 D A Bm F#m G D G A  
Basta alam ko lang ikaw ang hanap ng aking mata
Kahit di sinasadya
Laging naiisip ka

 Bm F#m G A 
Pagibig ba ito o humahanga lang sayo

 G D G A D 
Basta alam ko lang ako ay masaya sa piling mo

 G D G A D 
Basta alam ko lang... 
Ako ay masaya... 
Sa piling mo...







*09168313167*

Eurika Basta Alam Ko Lang chords – Joshua Soriano

 

intro:
 D A Bm F#m G D G A D A Bm F#m G D G A  
Di ka maalis sa aking isip
Mula ng makilala may bagong nadama

 D A Bm F#m G D G A  
Kapag kausap ka... 
Damdamin ay sumasaya
Bakit ba naiinis pag may kasama kang iba

 Bm F#m Bm A 
Sabi raw nila ganito pag umiibig na

 G D G A 
Pero di pa 'ko sigurado sa nadarama

 D A Bm F#m G D G A  
Basta alam ko lang ako ay masaya sa piling mo
Pag di ka natatanaw
Nalulungkot ang puso ko

 D A Bm F#m G D G A  
Basta alam ko lang ikaw ang hanap ng aking mata
Kahit di sinasadya
Laging naiisip ka

 Bm F#m G D 
Pagibig ba ito o humahanga lang sayo

 G D G A D 
Basta alam ko lang ako ay masaya sa piling mo

 D A Bm F#m G D G A  
Ako'y nalilito kapag katabi ka
Ang iyong ngiti sa akin ay nagpapakaba

 Bm F#m Bm A 
sabi daw nila ganito pag umiibig na

 G D G A 
Pero di pa ako sigurado sa nadarama

 D A Bm F#m G D G A  
Basta alam ko lang ako ay masaya sa piling mo
Pag di ka natatanaw
Nalulungkot ang puso ko

 D A Bm F#m G D G A  
Basta alam ko lang ikaw ang hanap ng aking mata
Kahit di sinasadya
Laging naiisip ka

 Bm F#m G D 
Pagibig ba ito o humahanga lang sayo

 G D G A D 
Basta alam ko lang ako ay masaya sa piling mo

 Bm F#m G D 
Pagibig nga kaya ang nadarama ngayon

 G D G A 
Sana'y malinawan din sa tamang panahon

 D A Bm F#m G D G A  
Basta alam ko lang ako ay masaya sa piling mo
Pag di ka natatanaw
Nalulungkot ang puso ko

 D A Bm F#m G D G A  
Basta alam ko lang ikaw ang hanap ng aking mata
Kahit di sinasadya
Laging naiisip ka

 Bm F#m G A 
Pagibig ba ito o humahanga lang sayo

 G D G A D 
Basta alam ko lang ako ay masaya sa piling mo

 G D G A D 
Basta alam ko lang... 
Ako ay masaya... 
Sa piling mo...



*09168313167*

Simple Lang chords – Ariel Rivera

 Simple Lang
Ariel Rivera

   Intro:  Eb - Bb/D - Cm - Ab Gm7 - C7sus - C7 - Fm - Bb 

                I
   Eb Bb/D 
   Simple lang naman ang nais 
   Cm Ab 
   Sa damdamin at isip ko
       Gm7 C7sus C7 
   Hindi ba't kaysarap ng buhay
        Fm Bb 
   Kung simple ang dating
   Eb Bb/D 
   Simple lamang sa pag-ibig
   Cm Ab 
   Nang di laking gulo sa isip
   Gm7 C7sus C7 
   Kailangan mong maging tapat
      Fm             Bb7sus
   Ganyan kung umiibig

              Refrain
               Eb Cm7 
   Simpleng buhay ay kay ganda
     Fm7 Bb7 
   Mayro'ng ngiti, mayro'ng saya
     G7sus G7 Cm 
   Walang hindi magagawa
      Fm Bb 
   Lalo na't simple ka
         Eb Cm7 
   Sama-sama magkaisa
      F/A Bb/D 
   Kahit maging sino ka pa
    G7sus G7 Cm 
   Lahat ay di ba't kaydali
     Fm Bb Eb 
   Ganyan ka lang sana

   Adlib:  Eb - Bb/D - Cm - Ab - G7sus Cm - Fm - Bb7 

   (Repeat I and Chorus)

   (Repeat Adlib)

   (Repeat Chorus)

   (Repeat Chorus moving chords 1/2 step  <e> higher,
    except last line)

     F#mB7sus-B7
   Ganyan ka lang
     E-B/Eb-C#m-A-Ab7sus-F#m-B7-E
   Sana</e>

Kahit Sa Pasko Lang chords – Ariel Rivera

 Kahit Sa Pasko Lang
Ariel Rivera

   Intro:  C#m - C - B - F# - Bm - E - Am7 - A -

               I 
   AM7 Bm AM7 Bm 
   Pasko na naman, ikaw ba'y nasaan 
   AM7 DM7 G#m - C# 
   Mag-iisa ba na naman 
      F#m F#m7 D Bm 
   Bakit kung Pasko'y laging wala ka? 
             AM7 - A - AM7 - A 
   Nasaan ka ba? Hmmm…

               II 
   AM7 BM AM7 Bm 
   Sana sa Pasko, ikaw ay narito 
   Am DM7 G#m - C# 
   Sana'y magkapiling tayo 
      F#m F#m7 D Bm 
   Walang halaga kapag wala ka 
            A - Em - A -
   Aking Pasko

             Refrain 
      D Dm A F# 
   Sana naman ang Paskong ito ay masaya 
    D E 
   Sana'y mayakap ka 
   C#m F# 
   Sana'y mahagkan ka 
    D Dm 
   Kahit sa Pasko lang 
       E A 
   Sana'y kapiling ka 

   Adlib:  AM7 - Bm -; (2x)
           AM7 - DM7 - G#m - C# F#m F#m7 D Bm 
   Walang halaga kapag wala ka 
            A - Em - A - 
   Aking Pasko

   (Repeat Refrain)

   (Repeat Refrain moving chords 1/2 step   higher, except last line)

       E A Gm --
   Sana'y kapiling ka

Cool Ka Lang chords – Prettier Than Pink

 Cool Ka Lang
Prettier Than Pink


 

   Intro:  C -- G -- F -- G --; (2x)  C --

     C 
   Buhol-buhol ang traffic
     G 
   Kinat ka pa ng jeep
     Gm 
   Minura pa ng driver
        F 
   At ulo'y uminit

            Refrain
     Fm C 
   Kumukulo na ang dugo mo
      Fm C 
   Kaya't sundan mo aking payo
         Fm G 
   Problema'y lilipas na lang

             C Caug 
   Kaya'y cool ka lang, cool ka lang
    C6 Caug 
   Bakit ba palagi ka na lang ganyan?
      C Caug 
   Cool ka lang, cool ka lang
      C6 Caug 
   Daanin mo sa galit, noo'y kukunot lang

   (Repeat Intro)

    C 
   Overtime daw
         G 
   Nag-goodtime lang pala
    Gm 
   Pag-uwi sa bahay
      F 
   Amoy alak pa siya

   (Repeat Refrain)

             C Caug 
   Kaya'y cool ka lang, cool ka lang
    C6 Caug 
   Bakit ba palagi ka na lang ganyan?
      C Caug 
   Cool ka lang, cool ka lang
      C6 Caug 
   Pwedeng-pwede mo naman siyang palitan

   (Repeat Intro)

     C 
   Mananahimik na
          G 
   Ang daming hirit
       Gm 
   Ano'ng paki nila
      F 
   Baka sila'y inggit

   (Repeat Refrain)

             C Caug 
   Kaya'y cool ka lang, cool ka lang
    C6 Caug 
   Bakit ba palagi ka na lang ganyan?
      C Caug 
   Cool ka lang, cool ka lang
      C6 Caug 
   Hayaan mo na lang, magsisisi rin yan

             Bridge
     C Caug 
   Easy ka lang, relaks ka lang
     F 
   Simple lang ang buhay
         Em 
   Ngumiti ka na lang
     F Em 
   Daanin mo sa galit, noo'y kukunot lang
      F G C - Caug - C6 - Caug 
   Kaya't kaibigan, konting pasensiya lang

              Coda
    C Caug C6 - Caug 
   Cool ka lang, cool ka lang

   Do chord pattern to fade:  C - G - F - G

Kung Pwede Lang chords – Father And Sons

 INTRO:  Dm F C Em - A Dm F C Am - A Dm Fm 
Sana'y wala ng wakas
        C/B Em - A 
Itong ating pagmamahalan... 
    Dm Fm 
O Hindi ko kaya,
        C/B Am - A 
ang mawalay ka O aking sinta... 
       F Fm C 
Kapag ika'y kasama, langit ang nadarama
                      Am - A 
Pagibig ko sa'yo ay tunay
 Dm F 
Kung pwede lang, 'wag na tayong
        C Am - A 
Magkahiwalay  Hmm


 Dm Fm C/B Em - A 
Mangungulila ako sa'yo, o aking mahal... 

 Dm Fm C/B Am - A 
Tamis ng mga halik mo, ay lagi kong pananabikan... 

         F Fm 
Ang mga yakap mo, at paglalambing mo
     C Am - A 
Ay hahanaphanapin ko... 
    Dm F 
Kung pwede lang, 'wag na tayong
            C Am - A 
Magkahiwalay


   Dm Fm 
Sana'y wala ng wakas
        C/B Em - A 
Itong ating pagtitinginan... 
 Dm Fm C/B Am - A 
Oh sana'y lagi kang katabi ko, sa lahat ng oras... 
        F Fm 
Ang mga yakap mo, at paglalambing mo
     C Am - A 
Ay hahanaphanapin ko... 
           Dm F 
Kung pwede lang, 'wag na tayong
            C Am - A 
Magkahiwalay

INSTRUMENTAL:
 Dm Fm C/B Em - A Dm Fm C/B Am - A F Fm 
Ang mga yakap mo, at paglalambing mo
     C Am - A 
Ay hahanaphanapin ko... 
           Dm F 
Kung pwede lang, huwag na tayong
            C Am - A 
Magkahiwalay


   Dm Fm 
Sana'y wala ng wakas
        C/B Em - A 
Itong ating pagmamahalan... 
 Dm Fm C/B Am - A 
Oh hindi ko kaya ang mawalay ka, O aking sinta... 
         F Fm 
Ang mga yakap mo, at paglalambing mo
     C Am - A 
Ay hahanaphanapin ko... 
           Dm F 
Kung pwede lang, 'wag na tayong
            C Am - A 
Magkahiwalay  (Oh no, no...)
           Dm F 
Kung pwede lang, 'wag na tayong
            C Am - A 
Magkahiwalay (O kung pwede nga lang)
           Dm F 
Kung pwede lang, 'wag na tayong
         C 
Magkahiwalay

Basta Alam Ko Lang chords – Joshua Soriano

 INTRO
 D A Bm F#m G D G A 

VERSE
 D A Bm F#m G D G A 

REFRAIN
 Bm F#m G D G A 


di ka maalis sa aking isip
mula nang makilala ka may bagong nadama
kapag kausap damdamin ay sumasaya
bakit ba naiinis pag may kasama kang iba

sabi raw nila ganito pag umiibig na
pero di pa ko sigurado sa nadarama

Chorus
basta alam ko lang, ako ay masaya sa piling mo
pag di ka natatanaw nalulungkot ang puso ko
basta alam ko lang, ikaw ang hanap ng aking mata
kahit hindi sinasadya laging naiisip ka
pag-ibig ba ito o humahanga lang sayo
basta alam ko lang ako ay masaya sa piling mo

ako’y nalilito kapag katabi ka
ang iyong ngiti sa akin ay nagpapakaba
sabi raw nila ganito pag umiibig na
pero di pa ko sigurado sa nadarama

Chorus
basta alam ko lang, ako ay masaya sa piling mo
pag di ka natatanaw nalulungkot ang puso ko
basta alam ko lang, ikaw ang hanap ng aking mata
kahit hindi sinasadya laging naiisip ka
pag-ibig ba ito o humahanga lang sayo
basta alam ko lang ako ay masaya sa piling mo

pag-ibig na kaya ang nadarama ngayon
sana’y malinawan din sa tamang panahon

Chorus
basta alam ko lang, ako ay masaya sa piling mo
pag di ka natatanaw nalulungkot ang puso ko
basta alam ko lang, ikaw ang hanap ng aking mata
kahit hindi sinasadya laging naiisip ka
pag-ibig ba ito o humahanga lang sayo
basta alam ko lang ako ay masaya sa piling mo

basta alam ko lang ako ay masaya sa piling mo



Listen to Songs: http://videokeman.com/eurika/basta-alam-ko-lang-eurika/#ixzz2kpEsZvT7

What You Looking For chords – Jonny Lang

 Jonny Lang - What you looking for (Bm)

Verses and Chorus;  Bm ,  C# ,  D ,  A ,  G 

You always see only what you wanna see
Always walkin' in your own reality
you will woke up living inside of dream
making muvies in the back of your mind
frame by frame, line by line

you change it and rearange it all the time
but their always same and you don't know why

Chorus;
   If you looking for love
   If you looking for faith
   If you looking for home
   You gonna finaly find what you looking for

   If you looking for fear
   If you looking for trouble
   If you looking for love
   You gonna finaly find what you looking for
   gonny find it, you gonny find it

Two people could be walkin' in the same shoes
and in the same time hear the same news
one was laughin' and the other one's cryin'
yeah one was livin' and the other one 's cryin'

So tell me now which one is you
'cause here in your room is .....
'cause the fact is that there's only 
one truth only diference is point of wiew

Chorus; REPEAT

Bridge;  G ,  D ,  A 
 And you finally find it and theres no denieng 
 that you were holding it all the time
 tomorow's too late you just can't wait to change your life

 You're gonna find it, your gonna find what you looking for