Tag: living

Living Room Song chords – The Wonder Years Vsion 4

 The Wonder Years

Living Room Song

Key: Eb/D# Major

Tuning: Half-a-Step Down (d#,A#,F#,C#,G#,D#)

 Matty Sievers

The song is played half-a-step down like most TWY songs and you'll see a tab for each 
chord below.
For the confused, tune your guitar down half a semi tone on each string then transpose 
this up a semi tone
on the app/website to make things clearer if you don't normally play out of standard.

I prefer the use of the Cmin open chord but if you're unable to move your fingers that 
quickly and like the
ease of just moving up and down the fretboard with no change then use the C chord. The 
band use the C chord
I however prefer the Cmin as it creates a much better vibe to the song.

Another option if you prefer that singer songwriter vibe, in standard tuning chuck your 
capo on 3rd fret and
transpose the tab down 3 semitones. Should be C, G, F, Amin.

I've added in the counts as best I could to help you out as I know how confusing the 
chord placement above
the lyrics can be sometimes. You should be able to hear the chord changes for the most 
part of the song
though.

      D# A# G# Cmin  or  C D#5 
e|---0----0----0----0------0---0----|
B|---0----0----0----0------0---0----|
G|---1----4----2----4------6---9----|
D|---2----4----2----6------6---9----|
A|---2----2----0----4------4---7----|
E|---0----0----0----0------0---0----|


       1 2 3 4 |1 2 3 4 1 2 3 4 |1 2 3 4
Intro:  D# A# G# D# A# G# 

VERSE (same timing)

 D# A# G# 
Guy on the radio sounds like a budget Steven Hawking.
 D# A# G# 
Keeps trying to tell me that The Bible says the world is ending.
 D# A# G# D# A# 
It goes down around May 20th, so I guess this song is pointless; you’re never gonna
 G# 
hear it.

PRE-CHORUS
            1   2    3    4    1  2  3  4 1   2    3   4
             C D#2 A# 
But if the world ends, I hope I’m in my living room with best friends.
G#(once)
So raise your glasses.

CHORUS (intro timing)

 D# A# G# D# A# G# 
We don’t have trouble sleeping. No one, no one’s gonna take that away from me.
 D# A# G# A# C G# 
We don’t have trouble sleeping. We know, we know who we wanna be.

VERSE

 D# A# G# 
Fuck some movie that I swore Keanu Reeves was in.
 D# A# G# 
These doomsday prophecies are all gonna amount to nothing.
 D# A# G# 
And so, for now, I’m calling “bullshit.”
                     D# A# G# 
If the Mayans don’t believe it, why should I be any different?

PRE-CHORUS

            C D#5 A# 
But if the world ends, I hope I’m in my living room with good friends.
G# (once)
So raise your glasses.

CHORUS

 D# A# G# D# A# G# 
We don’t have trouble sleeping. No one, no one’s gonna take that away from me.
 D# A# G# A# C G# 
We don’t have trouble sleeping. We know, we know who we wanna be.

BRIDGE:
1     2     3     4  1  2  3  4  1       2       3       4       1       2        3 & 4 &
 D# G# A# G# 
This week is gonna swallow me, but when it spits me out, I’m landing on my feet.
1     2     3     4     1 2 3 4  1   2   3   4
 D# G# A# 
I’m going to bed tonight in my New Found Glory hoodie.
   

Living The Legacy chords – Glen Campbell

 Living the Legacy
Glen Campbell
by Glen Campbell
1994 The Boy In Me album

Intro  B F# Db 

Verse 1

 Db F# 
My father knew it and his before him
 Db Bbm B F# 
And it goes way back down the line
 Db F# 
They had a vision, a prayer for the future
 Db Bbm B F# 
For what I would believe in time
 Db F# Db Bbm Db 
Now I'm not perfect, life's not easy,
 B F# 
But I wouldn't take the world for what they gave to me

Chorus 1 

     Db 
I'm living the legacy 
 F# Ab F# 
Walking the path that the faithful have laid down
                Db 
I'm living the legacy
 F# Ab F# 
Finding the hope that my fathers found
      Ebm Db B F# 
I am standing tall when I'm on my knees
                Db 
I'm living the legacy

Verse 2

 Db F# Db 
Something in common deep inside me
      F# Bbm B F# 
With those before me who are gone
 Db F# 
It gives me the vision fills me with a passion
 Db Bbm B F# 
To make the message carry on
 Db F# Db Bbm Db 
Lord I'm not perfect life's not easy
 B F# 
But for the future's sake I'm gonna do the best I can

Chorus 2
                Db 
I'm living the legacy 
 F# Ab F# 
Walking the path that the faithful ones have paved
                Db 
I'm living the legacy
 F# Ab F# 
Giving the hope that my fathers gave
      Eb    Ebn  Db B F# 
I am standing tall when I'm on my knees
                 Ab A B Db A B F# Ab 
I'm living the legacy

Chorus 3

                Db 
I'm living the legacy 
 F# Ab F# 
Walking the path that the faithful have laid down
                Db 
I'm living the legacy
      F# Ab F# 
I'm finding the hope that my fathers found
      Ebm Db B F# 
I am standing tall when I'm on my knees
                Db F# Ab F# Db F# Ab F# 
I'm living the legacy

 Ebm Db B F# Db 

flyinglibra51
God Bless Glen Travis Campbell

Easy Living chords – Billie Holiday

 Easy Living
Billie Holiday (1937)

m = minor
M = major

 Ab Adim7 Bbm7 Eb7 
Living for you is easy living
      Ab Fm Db Dbm 
It's easy to live when you're in love
     Ab F7 
And I'm so in love
         Bbm7 Eb7 Ab  Ao7  Bbm7 Eb7 
There's nothing in life but you

 Ab Adim7 Bbm7 Eb7 
I never regret the years I'm giving
         Ab Fm Db Dbm 
They're easy to give when you're in love
     Ab F7 Bbm7 Eb7 Ab Db Ab B7 
I'm happy to do whatever I do for you

     E B7 E 
For you maybe I'm a fool, but it's fun
 B7 E 
People say you rule me with one 
              Dbm 
Wave of your hand
               Eb7 
Darling, it's grand
      Eb7 
They just don't understand

 Ab Adim7 Bbm7 Eb7 
Living for you is easy living
      Ab Fm Db Dbm 
It's easy to live when you're in love
     Ab F7 
And I'm so in love
         Bbm7 Eb7 Ab 
There's nothing in life but you

A Living Prayer chords – Alison Krauss V2

 Song: A Living Prayer                                                           by  
Alison Krauss
INTRO-  D A E A E A E7 
In this world I walk alone
 A/C# D2 E7 A 
With no place      to call my home
 E A A/C# D2 
But there’s one who holds my hand
                     A E7 A E7 
The rugged road   through barren lands
                   A E7 
The way is dark the road is steep
         A/C# D2 E7 A 
But He's become      my eyes to see
          E A A/C# D2 
The strength to climb       my griefs to bear
                     A E7 A 
The Savior lives inside me there

CHORUS

  E/G# F#m D2 A 
In You're love___       I find release
 E/G# F#m D2 E7 
A haven from           my unbe - lief
                A A/C# D2 
Take my life__ and let me be___
                 A E7 A 
A living prayer__ my God to Thee__

 Turnaround

                A E7 
In these trials of life I find
  A/C# D2 E7 A 
Another voice     inside my mind
     E7 A A/C# D2 
He comforts me___ and bids me live
                    A E7 A 
Inside the love__   the Fa - ther gives

CHORUS

OUTRO

       A A/C# D2 
(Take my life   and let me be
               A E7 A 
a living prayer my God to Thee)

Living Testimony chords – Williams Brothers

 Key:  Ab 

[Chorus]
 Eb Ab Db Ab 
I am a living testimony, 
 Db Eb Db Ab 
I could've been dead and gone, but Lord you let me live on
 Eb Ab Db Ab 
I am a living testimony 
     Eb Db Ab     ( Db Eb ) 
And I thank the Lord I'm still alive
- Repeat -

[Verse 1]
 Ab Db Ab Eb Ab 
I've seen miracle after miracle performed in my life
             Db Eb Ab 
You’ve been having mercy on me I didn’t even deserve to be alive
        Eb Db Eb Db 
When I faced dangers I couldn't see, Lord you kept your angles in camp around me
 Ab Db Eb Db Ab Eb Ab 
And I wanna take this time to say thank you lord for keeping me alive. 

[Verse 2]
 Ab Db Ab Eb Ab 
I've had many friends and loved ones, who've gone on before me
             Db Eb Ab 
You know it caused my heart to bleed, and I realized it could've been me
 Eb Db Eb Db 
I know that I'm not worthy but the good lord keep on keeping me 
 Ab Db Eb Db Ab Eb Ab 
And I want to tell him thank you lord I'm still alive

[Vamp]
 Db Ab Db Ab 
I’m still alive I’m still alive
 Db Ab Db Ab 
I’m still alive I thank you Jesus I’m still alive
 Eb Db Ab 
I thank the Lord I’m still alive
 Eb Db Ab 
I thank the Lord I’m still alive

Living A Lie Tabs by Skindred

 Skindred: Living A Lie

: mysticguitar77

YouTube Channel: MysticGuitar77

Date last modified: January 25, 2014

Tuning: Drop C (C,G,C,F,A,D)

Riff 1
D|-------------------------------------|
A|-------------------------------------|
F|---------0~--------------------------|
C|-------4~----------------------------|
G|-----5~------------------------------|
C|-0~--------1~--4-3-1-0-0-0-0-0-0-0-0-|
                       * * * * * * * *

D|-----------------------------------------|
A|-----------------------------------------|
F|---------0~------------------------------|
C|-------4~--------------------------------|
G|-----5~----------------------------------|
C|-0~--------1~--4-3-0-6-6-6-6-10-10-10-10-|

Play Riff 1 x2

Riff 2   "Yo, you're not real, you're fake..."
D|--------------------------|
A|--------------------------|
F|--------------------------|
C|-4--0-1-2-3-0----1--2-3-3-|   x3
G|-4--0-1-2-3-0----1--2-3-3-|
C|-4--0-1-2-3-0----1--2-3-3-|

D|----------------------------|
A|----------------------------|
F|----------------------------|
C|-4--0-1-2-3-12\-4-3-1-0-1-3-|
G|-4--0-1-2-3-12\-4-3-1-0-1-3-|
C|-4--0-1-2-3-12\-4-3-1-0-1-3-|
                  * * * * * *

Play Riff 2 x2   "I see through you like a pane of glass..."

Riff 3   "Don't ever tell no one 'cause it's a secret..."
D|-1-1-1-1-1-1-1-1-1-1-1-1-1-1-1-1--------------------------------|
A|-3-3-3-3-3-3-3-3-3-3-3-3-3-3-3-3-5-5-5-5-5-5-5-5-5-5-5-5--------|
F|-2-2-2-2-2-2-2-2-2-2-2-2-2-2-2-2-5-5-5-5-5-5-5-5-5-5-5-5--------|
C|-0-0-0-0-0-0-0-0-0-0-0-0-0-0-0-0-3-3-3-3-3-3-3-3-3-3-3-3--------|
G|-0-0-0-0-0-0-0-0-0-0-0-0-0-0-0-0-3-3-3-3-3-3-3-3-3-3-3-3-----3b-|
C|-0-0-0-0-0-0-0-0-0-0-0-0-0-0-0-0-3-3-3-3-3-3-3-3-3-3-3-3-3h5----|

Play Riff 3 x2   "And if they find I know I never leaked it..."
Play Riff 1 x1   "Living a lie..."

Riff 4    "Living a lie..."
D|-------------------------------------|
A|-------------------------------------|
F|---------0~--------------------------|
C|-------4~----------------------------|
G|-----5~------------------------------|
C|-0~--------1~--4-3-1-0-0-0-0-0-0-0-0-|
                       * * * * * * * *

D|----------------------------------|
A|----------------------------------|
F|----------------------------------|
C|-8-8-8-8-8-8-8-8-8\-3-3-3-3-6-6-5-|
G|-8-8-8-8-8-8-8-8-8\-3-3-3-3-6-6-5-|
C|-8-8-8-8-8-8-8-8-8\-3-3-3-3-6-6-5-|

Fill 1
D|------------------------------|
A|------------------------------|
F|------------------------------|
C|-4-3-1-0--4-3-1-0--0-1-0--3-3-|
G|-4-3-1-0--4-3-1-0--0-1-0--3-3-|
C|-4-3-1-0--4-3-1-0--0-1-0--3-3-|
   * * *    * * *    

Play Riff 2 x2   "Who gets caught in a relationship..."

Riff 2 alteration (played in 2nd time through)
D|--------------------------|
A|--------------------------|
F|--------------------------|
C|-4--0-1-2-3------1--2-3-3-|
G|-4--0-1-2-3------1--2-3-3-|
C|-4--0-1-2-3-1ph~-1--2-3-3-|

Play Riff 3 x2   "Don't ever tell no one 'cause it's a secret..."
Play Riff 1 x1   "Living a lie..."
Play Riff 4 x1   "Living a lie..."

Fill 2   "I know what you are..."
D|-------------------------|
A|-------------------------|
F|-------------------------|
C|-4-3-1-4-3-1-4-3-1-4-3-1-|
G|-4-3-1-4-3-1-4-3-1-4-3-1-|
C|-4-3-1-4-3-1-4-3-1-4-3-1-|
   * * * * * * * * * * * 

Riff 5 (w/ fuzz, rhythm follows drum beat)
D|--------------------------------------------|
A|--------------------------------------------|
F|--------------------------------------------|
C|--------------------------------------------|
G|--------------------------------------------|
C|-0-0--00000--0--00000--3-3--33333--3-3-333b-|

D|-------------------------------------|
A|-------------------------------------|
F|-------------------------------------|
C|-------------------------------------|
G|-------------------------------------|
C|-0-0--00000--0--00000-3-3--33333-3b~-|

D|-----------------------------------

Start Living It chords – Ryan Sorestad

 This is played with standard tuning but in the recording it is played a half step 
down. I think it sounds really great a half step down, that's how I play it. This 
is one of the most amazing songs I've ever heard, enjoy.


Intro –  F  –  C  –  C  –  Am  --   F  –  C  -  G 
V1

               F C Am 
It’s been a long hard road, but he wouldn’t change a thing
              F C G 
From the scars on his hands to wedding ring
             F C Am 
He said I’m being called home, son,  my time is running out
             F C G 
But don’t you sweat the little things, there ain’t no room for doubt
 F G Am 
It’s ok to cry a little bit,
                    F G 
But you’ve still got your life, start living it

CH
 F G Am 
Hold your girl a little longer
 F G Am 
Take your faith, get it stronger
 F G C G/B Am G F 
Make the time to say the loving things you want to say, 
 G 
Everyday
                F G 
‘Cause this life’s all you’re gonna get
 F  –  C  –  C  –  Am  –  F  –  C  –  G  (intro progression)
Start living it

V2

I bet your mom’s prepared a feast way up in the clouds
It’s been a year since she’s gone, and I can almost see her now
(He said) If I could go back and do it all again
You know I’d live every single day, like it’s the end
It’s ok to cry a little bit
But you’ve still got your life, start living it




BR
 F C G Am 
Take your time, slow it down
 F C G 
Enjoy the love you’ve got all around

Living Addiction chords – Alex Goot

 1. Living  Addiction by Alex Goot                                                        
        Words and Music by: Alexander George Gut

 C Dm A# 
Only a fool would change himself
 A# Am C 
For a girl that lets him down,
 C Dm A# 
Only a fool would take a chance
 A# Am C 
A love that could never last

     C Dm7 
And now I sit here on my own
    A#add9 
And dream of a girl that I used to know
 C Dm7 A#add9 
I can't take her off my eyes again
(A#add9)
'Cause she's my living addiction

 A# F C Dm 
I know I'll do it again but I don't know why (She is my living addiction)
 A# F C Dm 
I wanna know why this feeling feels so right (She is my living addiction)
 A# F C Dm 
Oh she's the one that you know you're waiting on (She is my living addiction)
 A# F C Dm 
I know I'll do it again but I don't know why (She is my living addiction)


   Dm A# A# Am C 
Every day she's my living addiction
 C Dm A# 
And if I ever get the chance
 A# Am C 
I'm gonna face it like a man, oh
 C Dm A# 
I need to take my own advice
 A# Am C 
I can finally realize

Repeat Pre-Chorus

Repeat Chorus

Bridge
 Dm 
I was stuck in this rut so long
 A# 
I've been making up time to save my life
 Csus4 
I'm convinced it's just a phase
    Fsus2 Csus4 C 
But every day I lose my mind
 Dm 
If I never came back and I lost my head
 A#maj7 
Would I be better off tonight
 Csus4 C A# 
Just one way to find... out

Repeat Chorus x2

 Jarred Dawkins
Subscribe to my YouTube channel for a cover of this song.

The Living Years chords – Mike And The Mechanics V3

 Artist: Mike & The Mechanics
Song: The living years
: DJ
20th Jan 2014

Tuning: Standard
CAPO: 1st fret (Sounds in key of Ab)

Chord shapes are relative to capo position:
 G      =  320033     Cmaj7  =  x32000    D7sus4  = xx0213
 Gsus2  =  3x0233     C      =  x32010    D7      = xx0212
 F#m    =  244222     Fmaj7  =  103210    G/B     = x20033
 G4     =  320013     Am7    =  x22130

*************************************************************************

    G Gsus2 G G Gsus2 G F#m 
|  /  /   /   /  |  /  /   /   /  |  /  /  /  /  |  /  /  /  /  |


    G G4 G G4 Cmaj7 C Cmaj7 C 
Every gene - ration...      blames the one be - fore,
      G G4 G G4 Cmaj7 C Cmaj7 C 
And all of their frust - rations...   come beating on your door,
   Fmaj7 
I know that I'm a prisoner to all my Father held so dear,
    Am7 
I know that I'm a hostage... to all his hopes, and fears,
       D7sus4 D7 D7sus4 D7 G G4 G G4 
I just wish I could have told him  in the living years!


     G G4 G G4 Cmaj7 C Cmaj7 C 
Crumpled bits of paper,        filled with imperfect thought,
    G G4 G G4 Cmaj7 C Cmaj7 C 
Stilted conver - sations,      I'm a - fraid that's all we've got,
    Fmaj7 
You say you just don't see it, he says it's perfect sense,
     Am7 
You just can't get agreement... in this present tense,
       D7sus4 D7 D7sus4 D7 G G4 
We all talk a different language, talking in de - fence!


 G G4 G G G4 Cmaj7 C Cmaj7 C 
                Say it loud-------,                say it clear----!
   (Say it loud-----------,    say it clear-----!)

          Am7 D7sus4 D7 G G4 
You can listen... as well... as you hear-------,


 G G4 G G G4 Cmaj7 C Cmaj7 C 
                It's too late-------,              oh, when we die----!
   (It's too late---------,    when we die------!)

         Am7 D7sus4 D7 G G4 G G4 
To ad - mit we don't  see  eye to eye---------!  |  /  /  /  /  |


         G G4 G G4 Cmaj7 C Cmaj7 C 
So we open up a quarrel...   between the present and the past,
              G G4 G G4 Cmaj7 C Cmaj7 C 
We only sacrifice the future,     it's the bitterness that lasts,
          Fmaj7 
So don't yield to the fortunes... you sometimes see as fate,
         Am7 
It may have a new perspective... on a different day,
            D7sus4 D7 D7sus4 D7 G G4 
And if you don't give up, don't give in, you may just be o

Weight Of Living Part 1 chords – Bastille V5

 Capo 1

INTRO:  C G D  (2x)

            C 
There's an albatross around your neck,
         G 
All the things you've said and the things you've done:
         C 
Can you carry it with no regrets?
         G 
Can you stand the person you've become?

 Em G 
Oh, there's a light,
 Em G 
Oh, oh, oh, there's a light...

 C G Em D 
Your albatross, let it go, let it go.
 C G Em D 
Your albatross, shoot it down, shoot it down
          C G D 
When you just can't shake the heavy weight of living.

          C 
Stepping forward out into the day,
           G 
Shrugging off the dust and memory.
             C 
Though it's soaring still above your head,
       G 
It is out of sight and none shall see.

 Em G 
Oh, there's a light,
 Em G 
Oh, oh, oh, there's a light...

 C G Em D 
Your albatross, let it go, let it go.
 C G Em D 
Your albatross, shoot it down, shoot it down
          C G D 
When you just can't shake the heavy weight of living.
          C G D 
When you just can't seem to shake the weight of living...

          Em C G D 
It's the sun in your eyes, in your eyes.
          Em C G D 
It's the sun in your eyes, in your eyes.
          Em C G D 
It's the sun in your eyes, in your eyes.
          Em C G D 
It's the sun in your eyes, in your eyes.

 C G Em D 
Your albatross, let it go, let it go.
 C G Em D 
Your albatross, shoot it down, shoot it down
          C G D 
When you just can't shake the heavy weight of living.
          C G D 
When you just can't seem to shake the weight of living...
               C G 
The weight of living,
               D 
The weight of living,
               C G 
The weight of living,
               D 
The weight of living.

 C G D  (4x)

Weight Of Living Part 1 chords – Bastille V4

 Weight of Living Part 1 - Bastille
--------------
Original Chords

Easiest Way to play the song: 
Transpose This tab down 1
Capo on 1
---------
VERSE 1

                   C# 
There's an albatross around your neck,
               G# 
All the things you've said,

and the things you've done,
               C# 
Can you carry it with no regrets,
                G# 
Can you stand the person you've become,
 Fm C# G# 
Ooooh there's a light (x2)


CHORUS
 C# G# Fm D# 
Your Albatross, let it go, let it go,
 C# G# Fm D# 
Your Albatross shoot it down, shoot it down
                 C#  
When you just can't shake
        G# D# 
The heavy weight of living

VERSE 2 
                 C# 
Stepping forward out into the day
                 G# 
Shrugging off the dust and memory
                   C# 
Though it's soaring still above your head
              G# 
It is out of sight and none shall see
 Fm C# G# 
Ooooh there's a light (x2)

CHORUS

 C# G# Fm D# 
Your Albatross, let it go, let it go,
 C# G# Fm D# 
Your Albatross shoot it down, shoot it down
                 C#  
When you just can't shake
        G# D# 
The heavy weight of living

BRIDGE

          Fm C# G# D#  
It's the su-u-un in your eyes, in your eyes (x4)

CHORUS

 C# G# Fm D# 
Your Albatross, let it go, let it go,
 C# G# Fm D# 
Your Albatross shoot it down, shoot it down
                 C#  
When you just can't shake
        G# D# 
The heavy weight of living

OUTRO

                 C# G# 
The Weight of Living 
                      D#  
The Weight of Living (x2)

The Night Of The Living Living chords – No Use For A Name

 No Use For A Name
The Night Of The Living Living
Feel Good Record Of The Year
2008 Fat Wreck Chords
Submitted by: jeremyunderground41

Key:  F 

Tuning: Standard EADGBe

Chords used:
 Dm  -   xx0231
 Bb  -   x13331
 F  -    133211
 C  -    x32010
 C/E  -  032xxx
 A  -    x02220
 Am  -   x02210
 A/C#  - x476xx
 Eb  -   x68886
 Gm  -   355333
 Em  -   022000


Intro:

Spoken:  Dm - Bb - C - A - x2

Distortion:  Dm - A - Bb - C -

Fast Punk Rock Drums:
 Dm C/E F Bb F Bb C A Dm A Bb F Bb C A A   


Verse 1:
        Dm 
And so much can change 
      C 
in a second when 
 Bb 
everybody's Hiding
     F C/E 
the truth   An
  Dm 
eternal quest for some
 Am 
happiness is there
 Bb C 
anything we Won't screw?


Refrain 1:
        F 
Like a loaded gun
       C/E 
if it sits too long
  Eb 
eventually you'll
             Bb 
work Up the nerve
 Gm F Em Dm C A/C# 
To a-bandon your herd


Verse 2:
              Dm 
We got these remedies
         C 
for insecurities
      Bb 
that nobody is
           F C/E 
Listening to
         Dm 
All the mournful
cries of the less
 Am 
fortunate are so
 Bb C 
easy to Say and not to


Refrain 2:
        F 
Like a funeral march
        C/E 
in the summer sun
      Eb 
it's beautiful for
              Bb 
Something so sad
 Gm F Em 
Concentrating on
     Dm 
the things we
 C 
can't have


Chorus 1:
    Bb C 
We all live in a cage 
          Dm 
without space to use our
 A Bb 
heads I'm more scared
 F/A Gm F C A/C# --
of the living than the dead


Guitar Solo:  Dm C Bb F C/E Dm A Bb C   


Outro:
      F 
In a hospital counting 
 C/E 
every breath, are
     Eb 
you happy with no
            Bb 
One in you life? 
    Gm F Em 
As long as up to this
       Dm C 
point you were right
     Bb F/A 
But living scared is
 Gm C F (hold)
just no way to die

Permanent Song Name Tabs by Letters To The Living

 Key:*-palm mute
    p-pulloff
    h-hammeron
    s-slide
    ~-let ring
    1-Guitar 1
    2-Guitar 2
    B-Both guitars

0:00-0:11
C#|-----------------------------------|
G#|-----------------------------------|
E |-----------------------------------|
B |-----------------------------------|
F#|-------8---------------------------|
B |-000-0---0-0-0-000-000-------------|B
    *** *   * * * *** ***
C#|-----------------------------------|
G#|-----------------------------------|
E |-----------------------------------|
B |-----------------------------------|
F#|-------10--------------------------|
B |-888-8----8-8-8-101010-101010------|b
    *** *    * * * * * *  * * *
C#|-----------------------------------|
G#|-----------------------------------|
E |-----------------------------------|
B |-----------------------------------|
F#|-------8---------------------------|
B |-000-0---0-0-0-000-000-------------|B
    *** *   * * * *** ***
C#|-----------------------------------|
G#|-----------------------------------|
E |-----------------------------------|
B |-----------------------------------|
F#|-------10--------------------------|
B |-888-8----8-8-8-777-777----(slide)-|B
    *** *    * * * *** ***

0:12-0:22
C#|-----------------------------------|
G#|-----------------------------------|
E |-----------------------------------|
B |-----------------------------------|
F#|-------8-------------8-------------|
B |-000-0---0-0-0-000-0---0-0-0-------|1
    *** *   * * * *** *   * * *
C#|-----------------------------------|
G#|-----------------------------------|
E |-----------------------------------|
B |-----------------------------------|
F#|-------12-------------12-----------|
B |-000-0----0-0-0-000-0----0-0-0-----|2
    *** *    * * * *** *    * * *
C#|-----------------------------------|
G#|-----------------------------------|
E |-----------------------------------|
B |-----------------------------------|
F#|-------8-------------8-------------|
B |-888-8---8-8-8-777-7---7-7-7-------|1
    *** *   * * * *** *   * * *
C#|-----------------------------------|
G#|-----------------------------------|
E |-----------------------------------|
B |-----------------------------------|
F#|-------12-------------10-----------|
B |-888-8----8-8-8-777-7----7-7-7-----|2
    *** *    * * * *** *    * * *


0:23-0:33
C#|-----------------------------------|
G#|-----------------------------------|
E |-----------------------------------|
B |-----------------------------------|
F#|----------7----7----------7----7---|
B |-00000000---00---00000000---00-----|1
    ********   **   ********   **
C#|-----------------------------------|
G#|-----------------------------------|
E |-----------------------------------|
B |-----------------------------------|
F#|----------10----10---------10----10|
B |-00000000----00----00000000----00--|2
    ********    **    ********    **
C#|-----------------------------------|
G#|-----------------------------------|
E |-----------------------------------|
B |-----------------------------------|
F#|----------7----7----------7----5---|
B |-88888888---88---77777777---77-----|1
    ********   **   ********   **
C#|-----------------------------------|
G#|-----------------------------------|
E |-----------------------------------|
B |-----------------------------------|
F#|----------10--10----------10----8--|
B |-88888888---88---77777777---77-----|2
    ********   **   ********   **


0:33-0:38
C#|-----------------------------------|
G#|-----------------------------------|
E |-----------------------------------|
B |-----3------3------3----7-5-3-5--0~|
F#|-------5------5------5-----------0~|
B |-0-0-----0-0----0-0--------------0~|B
    * *     * *    * *

0:39-1:01 (chorus x2)
C#|-----------------------------------|
G#|-----------------------------------|
E |-----------------------------------|
B |-5557775557775555-888777888

Weight Of Living Part 1 chords – Bastille V3

 Capo is on the 4th fret


[Intro]

 A E B A 
There's an albatross around your neck,
         E 
All the things you've said,
and the things you've done,
         A 
Can you carry it with no regrets,
          E 
Can you stand the person you've become,

 Cm E 
Ooh there's a light [x2]

 A E Cm B 
Your Albatross, let it go, let it go,
 A E Cm B  
Your Albatross shoot it down, shoot it down
          A    
When you just can't shake
       E B  
The heavy weight of living

           A 
Stepping forward out into the day
            E 
Shrugging off the dust and memory
             A 
Though it's soaring still above your head
       E 
It is out of sight and none shall see

 Cm E 
Oooh there's a light [x2]

 A E Cm B 
Your Albatross, let it go, let it go,
 A E Cm B  
Your Albatross shoot it down, shoot it down
          A    
When you just can't shake
     E B  
The heavy weight of living
           A E 
When you just can't seem to shake
                     B 
The heavy weight of Living

         Cm A E B 
It's the sun in your eyes, in your eyes [x4]

 A E Cm B 
Your Albatross, let it go, let it go,
 A E Cm B  
Your Albatross shoot it down, shoot it down
          A    
When you just can't shake
       E B  
The heavy weight of living
          A E 
When you just can't seem to shake
                     B 
The heavy weight of Living

               A E 
The Weight of Living
               B  
The Weight of Living
               A E 
The Weight of Living
               B  
The Weight of Living

[Outro]
 A E B A E B A E B A E

Living This Life chords – The Dutchess And The Duke

 The Dutchess and the Duke: Living this Life


Intro:

 G C G 
(With the little riffs thrown in. See below)

 G 
If I tear all these walls down, I’m left alone with my memories 
             C G 
they’re all waiting for me in evenly measured up columns and rows.
 G 
If I walked in your black boots, if I walked in your black dress
       C G 
would you hold me tight or just beat me for wearing your clothes?

 Em 
It’s a dangerous lesson
 Am 
to be learned in the dark.
     G D 
But it’s living this life
     G C 
yeah it’s living this life
     G D 
well it’s living this life
          C  -  Bm  -  Am  -  D  -  G 
makes it hard.

 G 
Will I ever visit your tombstone, will I ever pay for my crimes
                  C G 
and I ask you if I’m on fire why am I so cold?
 G 
Will I ever walk through the city, will I ever look without seeing your face
    C G 
On every stranger and every forgotten soul?

 Em 
I don’t know if I’ll see you,
 Am 
but I’ll be on my guard
            G D 
cause it’s living this life
           G C 
yeah it’s living this life
           G D 
well it’s living this life
          C  -  Bm  -  Am  -  D  -  G 
makes it hard. (Repeat this line x4)

(Instrumental)

 Em 
When I finally crumble
 Am 
I won’t have to fall too far
            G D 
cause it’s living this life
           G C 
yeah it’s living this life
           G D 
well it’s living this life
          C  -  Bm  -  Am  -  D  -  G 
makes it hard. (x4)


Riffs
               G G 
e|----------------------------------|
B|-----0-1-0------------0-1-0-------|
G|-0-2-------0------0-2-------0-----|
D|----------------------------------|
A|----------------------------------|
E|----------------------------------|

               C G 
e|----------------------0-----------|
B|-----0-----1------1-3---3-1-0-----|
G|-0-2---2-0------------------------|
D|----------------------------------|
A|----------------------------------|
E|----------------------------------|


e|-----------0----------------------|
B|-----0-1-3---3-1-0----------------|
G|-0-2---------------2-0------------|
D|----------------------------------|
A|----------------------------------|
E|----------------------------------|

Land Of The Living chords – Roo Panes

 Land of the Living - Roo Panes

He plays the verses of this song picking the B and A strings followed by the G 
string (pun not intended), simultaneously playing the riff with his pinky. He 
strums for the pre-chorus and chorus. Brilliant song - love it! 

Capo 5 
Standard Tuning


Intro:
 C 

Verse 1:
 C 
Where they go 
That we shall cherish and that I wrestle 
Don't want to be like the dust that settles

V2:
This empire of nothing 
I find that I'm king of all these empty homes
That are ruled by my own flaws


Pre-Chorus:
                     C 
But you can't be an old fire 
  F C G 
If you are burning with a new flame
      C F C G 
So remember that, you are never a forgotten name


Chorus:
      C F C 
Cause I know a land called the land of the living
                                               F C 
It's the world beyond those curtains where we learned to play 
                         F C F 
I hear the voices of my childhood singing it's the world beyond those 
 C 
doorways 
          F C 
Where we used, to play

V3:
Cause every moment
Is a chance to define what you want to become
You're not a slave to things you've done

V4:
Be brave and be bold,
Be childish and old it's the same old story
Every life needs a hope of glory.

V5:
But you can't be an old fire
If your burning with a new flame
So remember that, you are never a forgotten name.


Chorus:
      C F C 
Cause I know a land called the land of the living
                                               F C 
It's the world beyond those curtains where we learned to play 
                         F C F 
I hear the voices of my childhood singing it's the world beyond those 
 C 
doorways 
          F C 
Where we used, to play
      

Bridge:
       C F 
I was born to be free, you were born to free me,
       C F 
I was born to be free, you were born to free me
       C F 
I was born to be free, you were born to free me
       C F 
I was born to be free, you were born to free me.


Chorus:
      C F C 
Cause I know a land called the land of the living
                                               F C 
It's the world beyond those curtains where we learned to play 
                         F C F 
I hear the voices of my childhood singing it's the world beyond those 
 C 
doorways 
          F C 
Where we used, to play


Chorus:
      C F C 
Cause I know a land called the land of the living
                                               F C 
It's the world beyond those curtains where we learned to play 
                            F C 
Oh we'll go back, we'll go back to the beginning 
                                      F C 
And well pick up on the trails of forgotten ways.

Outro:
 C

Times Worth Living The Tension chords – Pat The Bunny Schneeweis

 I did my best to transcribe lyrics there was one part I couldn't make out
   B F# G#m E 
its too late for me my friends, 
   B F# G#m E 
once i gave refuge to the notion, even for a moment,
     B F# G#m E 
there was no turning back to comfort again,
       B F# G#m E 
only a lifetime of defeats, more or less spectacular, so,
        B F# 
ill march on to your court dates,
       C#m E 
ill gather court dates of my own,
          B F# 
ill miss the ones in prisons,
       C#m E 
and the ones who never made it there,

The rest of the song is B F# G#m E

the ones who said onward comrades to our death,
with ruin on their breath, the weight of centuries on their tongues,
(something) failed manifestos in their guns,
as if defeat repeated often could someday mean we had won,
our historys a vacant lot, littered with empty bank accounts, 
sobbing parents, broken bones,
glorious songs, and lengthy prison terms,
a handful of moments that were truly our own
in between desperate gasping for air worth breathing, and times worth living

Living Around Tabs by Promise Ring

 Title: Living Around
 Very Emergency
: Kris Johansen - krisjohansen@guitarsrule.com


Intro
             x3               
e------------------------|---------------------------------------------|
B------------------------|---------------------------------------------|
G---7--7--7--7-----------|---4--4--4--4--------------------------------|
D---7--7--7--7--7-7-7-7--|---5--5--5--5--------------------------------|
A---5--5--5--5--7-7-7-7--|---5--5--5--5--------------------------------|
E---------------5-5-5-5--|---3--3--3--3--------------------------------|

Verse 


e--------------------0------3--2--0------------------------------------|
B--3~---------3-2h3----3------------3----------------------------------|
G--2~-------2--------------------------2-------------------------------|
D--0------0-------------------------------0----------------------------|
A----------------------------------------------------------------------|
E----------------------------------------------------------------------|


Pre-chorus "I guess this just fits..."


e----------------------------------------------------------------------|
B----------------------------------------------------------------------|
G---7-7-7-7--6--6--6--6--------------6--6--6--6--7--7--7--7--6--6--6--6|
D---7-7-7-7--7--7--7--7--9--9--9--9--7--7--7--7--7--7--7--7--7--7--7--7|
A---5-5-5-5--7--7--7--7--9--9--9--9--7--7--7--7--5--5--5--5--7--7--7--7|
E------------5--5--5--5--7--7--7--7--5--5--5--5--------------5--5--5--5|

e----------------------------------------------------------------------|
B----------------------------------------------------------------------|
G---4--4--4--4--4--4--4--4---------------------------------------------|
D---5--5--5--5--5--5--5--5---------------------------------------------|
A---5--5--5--5--5--5--5--5---------------------------------------------|
E---3--3--3--3--3--3--3--3---------------------------------------------|


lead

e----------------------------------------------------------------------|
B----------------------------------------------------------------------|
G--7-6--7/9--7--7-6-7/9--7---7--6-7-9-9/11--9--------------------------|
D----------------------------------------------------------------------|
A----------------------------------------------------------------------|
E----------------------------------------------------------------------|

e----------------------------------------------------------------------|
B----------------------------------------------------------------------|
G--7-6--7/9--7--7-6-7/9--7---7--6------------9-------------------------|
D----------------------------------7-7/9--7----------------------------|
A----------------------------------------------------------------------|
E----------------------------------------------------------------------|


e----------------------------------------------------------------------|
B----------------------------------------------------------------------|
G--7-6--7/9--7--7-6-7/9--7---7--6-7-9-9/11--9--------------------------|
D----------------------------------------------------------------------|
A----------------------------------------------------------------------|
E----------------------------------------------------------------------|

e----------------------------------------------------------------------|
B----------------------------------------------------------------------|
G--7-6--7/9--7--7-6-7/9--7---7--6-7-9-9/11--9---7----4-----------------|
D----------------------------------------------------------------------|
A----------------------------------------------------------------------|
E----------------------------------------------------------------------|


Chorus "Its the end of the world today you dropped a bomb..."
       
e-------------------------------------|------------------|-------------|
B-------------------------------------|------------------|---

Dead Living Tabs by Rudimentary Peni

 Dead Living- Rudimentary Peni

: Z

Intro (Guitar Only)

e-----------------|
B-----------------|
G-----------------|
D-----------------|
A--9999--10101010-|
E--7777--8-8-8-8--|

Verse

e----------------------------------------------|
B----------------------------------------------|
G----------------------------------------------|
D----------------------------------------------|
A--9999-10101010-7777-8888-5555-6666-3333-4444-|
E--7777-8-8-8-8--5555-6666-3333-4444-1111-2222-|

Solo

e--7777-88-10-8--5555-66-8-6-3333-44-6-4--1111-22-4-2-1-|
B-------------------------------------------------------|
G-------------------------------------------------------|
D-------------------------------------------------------|
A-------------------------------------------------------|
E-------------------------------------------------------|

End song on F --> A--3-|
                  E--1-|

Order:
Intro(x2)
Verse (x3)
Solo plays on 3rd verse.

Lyrics:

I'm a zombie, the crowd burried me
My piercing eyes they just couldn't see
I'm a zombie a death in their life
I'm a zombie no peace in their strife