Tag: Long Time

Growing Up Tabs by My First Band

 Artist: My First Band
Song: Growing Up
 You Look So Bored

Capo 1

Intro:
(Played between the keyboard parts)

E|--------|--------|--------|--------|--------|--------|--------|--------|
B|--------|--------|--------|--------|--------|--------|--------|--------|
G|--------|--------|--------|--------|--------|--------|--------|--------|
D|--2-5-2-|--------|--2-----|--------|--2-5-2-|--------|--2-----|--------|
A|5-------|0-------|5---5-0-|3-------|5-------|0-------|5---5-0-|3-------|
E|--------|--------|--------|--------|--------|--------|--------|--------|

E|--------|--------|
B|--------|--------|
G|--------|--------|
D|--2--5--|--------|
A|5-----0-|3-------|
E|--------|--------|


Verse 1:
C                          F
  Tell me where and when, how and why.
Am                               F
Share with me a tale about your past.
C                             F
  Tell me please because I’m wondering.
Am                               Em               
Have you always been so kind at heart, like you are today.

E|--------|--------|--------|--------|--------|--------|--------|--------|
B|--------|--------|--------|--------|--------|--------|--------|--------|
G|--------|--------|--------|--------|--------|--------|--------|--------|
D|--2-5-2-|--------|--2-----|--------|--2-5-2-|--------|--2-----|--------|
A|5-------|0-------|5---5-0-|3-------|5-------|0-------|5---5-0-|3-------|
E|--------|--------|--------|--------|--------|--------|--------|--------|

E|--------|--------|
B|--------|--------|
G|--------|--------|
D|--2--5--|--------|
A|5-----0-|3-------|
E|--------|--------|

C                             F
  Sometimes I dream about us way back when,
Am                                 F
spending all those endless days together.
C                           F
  But if I’d known you when we were young
Am                                       Em
I wouldn’t have the chance to take this part
F                     C
  of learning your heart.

Chorus:
C                    F                   Am         G
  I hope it takes a lifetime, Oh such a long time.
                      C
Please tell me everything.
C                    F                   Am         G
  I hope it takes a lifetime, Oh such a long time.


E|--------|--------|--------|--------|--------|--------|--------|--------|
B|--------|--------|--------|--------|--------|--------|--------|--------|
G|--------|--------|--------|--------|--------|--------|--------|--------|
D|--2-5-2-|--------|--2-----|--------|--2-5-2-|--------|--2-----|--------|
A|5-------|0-------|5---5-0-|3-------|5-------|0-------|5---5-0-|3-------|
E|--------|--------|--------|--------|--------|--------|--------|--------|

E|--------|--------|
B|--------|--------|
G|--------|--------|
D|--2--5--|--------|
A|5-----0-|3-------|
E|--------|--------|

C                              F
  I still remember when I was five years old,
        Am                             F
though most of those memories are now gone.
C                                          F
  Way back then it wasn’t all that bad to spend the day in pouring rain.
Am                            Em                 F
Seems that every yesterday I spent was ment for me.
Today you’re all I see


Chorus:
C                    F                   Am         G
  I hope it takes a lifetime, Oh such a long time.
                      C
Please tell me everything.
C                    F                   Am         G     F (only one strum)
  I hope it takes a lifetime, Oh such a long time.


  Am  G         Am    G   Am       C
  We are always in a hurry growing up
     G         Am                 F
and we always want the things we haven’t got.
   G               Am          F          C
I fear, you won’t see me as I am, half a man.
    G            Am                       F
I fear being a grown up instead of acting one.
C            F#

Severed Crossed Fingers chords – St Vincent

 Super simple song. I think the voicing on the recording is capo`d on the 2nd fret, 
making the relative key G, but I`m going to put the chords in as if no capo is being used.

Verse

 A D A D 
When you're calling ain't calling back to you
I'll be side stage, mouthing lines for you
Humiliated by age, terrified of youth
I got hope but my hope isn't helping you

Chorus

 A D 
Spitting out guts from their gears
 A D 
Draining our spleen over years
 A F#m E   
Find my severed crossed fingers in the rubble there

Verse

Wake up puddle eyed, sleeping in a suit
The truth is ugly well, I feel ugly too
We'll be heroes on every bar stool when
Seeing double beats not seeing one of you

Chorus

Spitting out guts from their gears
Draining our spleen over years
Find my severed crossed fingers in the rubble there
Well you stole the heart right out my chest
Changed the words that I know best
Find my severed crossed fingers in the rubble there

Interlude

F#m - E repeats then remains on E for a long time

Spitting out guts from their gears
Draining our spleen over years
Find my severed crossed fingers in the rubble there
Well you stole the heart right out my chest
Changed the words that I know best
Find my severed crossed fingers in the rubble there


The instrumental tag that is played in the intro, interlude and outro is:

e|---------------------------------------------------------------|
B|--------------------------2*-----2*----------------------------|
G|-----2-2-2----2-2-2----2h4-4--2h4-4----------------------------|
D|--2h4------2h4------2h4----------------------------------------|
A|---------------------------------------------------------------|
E|---------------------------------------------------------------|

*If you`re playing with the capo on the second fret, slide up to the C# instead of playing it open

Another Round chords – Whitey Morgan

 A 
I quit my job on a friday afternoon
 B7 E 
I's Feelin low down and mean as a dog
 A D 
I called up them boys down detroit city
            A E A 
I said hell we're gonna make it nashville after all
 A 
I rolled that deisel through a windy rainy night
              B7 E 
down through hollers and up through the falls
 A D 
when that mornin sun shined on that tennessee state line
 A E A 
I said boys we gonna have ourselves a ball

CHROUS:
 D 
Well its been a long time 
                   A 
since I had a good time
     B7 E 
And tonight I'm gonna drink from the well
       A D 
so order up another round boy im gonna put'em down
          A E A 
I got a late start but tonight I'm raisin hell


I rolled up to this honky tonk on broadway
               B7 E 
and the band played as I strolled through the door
    A D 
I sat down in my seat shouted play some jerry reed
             A E A 
they played amos moses and I damn near fell on the floor

well they played waylon, hank, johnny, merle and george jones
 B7 E 
me and the boys drank and sang off key
           A D 
and that guitar pickin man walked over with a little grin
         A E A 
said what brings you boys down here to Tennessee

CHROUS:
 D 
Well its been a long time 
                   A 
since I had a good time
     B7 E 
And tonight I'm gonna drink from the well
       A D 
so order up another round boy im gonna put'em down
          A E A 
I got a late start but tonight I'm raisin hell

Ocean Cloud Tabs by Marillion

 As Marillionmusic has been down for a long time now, I thought of saving some brilliant
tabs of songs not found anywhere else by diving into the internet archives and posting
them here.
All the credits and props to the original transcriber. Thank your, whoever you are!

Marillion - Ocean Cloud
=======================

 Gary Jevon
====================

SECTION 1
=========

Intro

"He’s seen too much of life…
And there’s no going back…"


(Clean Gtr sound)

e|-------3---3--|-------3---3-----|-------3---3--|-------3----------0--|
B|-------3---3--|-------3---3-----|-------3---3--|-------3----------0--|
G|-------2---2--|-------0---0-2-0-|-------2---2--|-------0---2-/-4-----| x 2
D|---2---2---2--|---2---2---2-----|---2---2---2--|---2---2-------------|
A|---2---2---2--|---3---3---3-----|---2---2---2--|---3---3-------------|
E|---0---0---0--|-----------------|---0---0---0--|---------------------|


Verse 1
=======

“The loneliness calls him,
And the edge which must be sharpened…”

e|-------3---3--|-------3---3--|
B|-------3---3--|-------3---3--|
G|-------2---2--|-------0---0--| x 6
D|---2---2---2--|---2---2---2--|
A|---2---2---2--|---3---3---3--|
E|---0---0---0--|--------------|


e|---2---2---2-3-|-----------------------------|
B|---3---3---3---|---------3---------3---------|
G|---2---2---2---|------0---------0--------0---| x 2
D|---0---0---0---|-----------------------------|
A|---------------|---2---------3---------3-----|
E|---------------|-----------------------------|

Verse 2
=======

“The smell of the earth,
It's his favourite smell…”

e|-------3---3--|-------3---3--|
B|-------3---3--|-------3---3--|
G|-------2---2--|-------0---0--| x 8
D|---2---2---2--|---2---2---2--|
A|---2---2---2--|---3---3---3--|
E|---0---0---0--|--------------|

Chorus
======

"You can take all the boys and the girls in the world,
And I'll trade them this morning for my sweet Ocean Cloud…”

e|---2---2---2--|---0---0---0--|---3---3---3--|---3---2---2--|
B|---3---3---3--|---0---0---0--|---3---3---3--|---3---3---3--|
G|---4---4---4--|---2---2---2--|---0---0---0--|---2---2---2--| x 2
D|---4---4---4--|---2---2---2--|---2---2---2--|---0---0---0--|
A|---2---2---2--|---0---0---0--|---3---3---3--|--------------|
E|--------------|--------------|--------------|--------------|

Solo Build-Up
=============

(Overdiven Gtr Sound, with slide and volume control swell)

e|--------|--------|--------|--------|--------|--------|-------|---------|
B|--------|--------|--------|--------|--------|--------|-------|-10-/-12-|
G|--------|--------|--------|----2-/-|--4-----|----7-/-|--9----|---------|
D|--------|--------|--------|--------|--------|--------|-------|---------|
A|--------|--------|--------|--------|--------|--------|-------|---------|
E|--0-----|--------|--------|--------|--------|--------|-------|---------|

Solo (part 1)
=============

(Heavily Overdriven sound, with slide)

e|--12-----15--|--14----8---10--|---7--------------|------------------------|
B|-------------|----------------|-----7--8--7------|------------------------|
G|-------------|----------------|---------------7--|------7----------9--11--|
D|-------------|----------------|------------------|---7-----7-/-9----------|
A|-------------|----------------|------------------|------------------------|
E|-------------|----------------|------------------|------------------------|

e|-------------------------12-|---15---17--12----19--19--|-22---17---19--15-|
B|-------12--12---12---12-----|--------------------------|------------------|
G|--12------------------------|--------------------------|------------------|
D|----------------------------|--------------------------|------------------|
A|----------------------------|--------------------------|------------------|
E|----------------------------|--------------------------|------------------|

e|--17---14---10----------|--10-/-12-------10-/-12

Permanent Marker chords – Taylor Swift V3

 This is Taylor Swift's 'Permanent Marker' I noticed other people's versions were 
wrong so I made my own. These chords are pretty much correct!

Chords:

 G       300033
 Cadd9   x30033
 Em7     x20033
 Asus4   x02230
 D       xx0232
 Dsus4   xx0233
..............
Guitar Riff (rundown)

-----------3----------------------0-----------3--3---------------|
-----------3----------------------3-----------2--2---------------|
-----------0----------------------2-----------3--3---------------|
-----------0----------------------2-----------0--0---------------|
-----------------3----2-----0------------------------------------|
------3----------------------------------------------------------|

This riff can be played for the (cadd9/Em7/Asus4)parts. Or you can just strum as chords :) 
...........................................................
Intro:  G Cadd9 / Em7 / Asus4 D  x2

             G Cadd9 Dsus4 
I know he loved you
            G Cadd9 / Em7 / Asus4 
A long time ago
     D G Cadd9 Dsus4  
I ain't jealous of you
                          G Cadd9 / Em7 / Asus4 D 
Just thought you should know
           Cadd9           
You were never good enough for him
    Dsus4 
Or anything like me
        Asus4 G 
So you might as well sit back cause I ain't
 Cadd9 D 
trying to show maturity


 G Cadd9 Asus4 D 
X is the shape I drew through your face 
    G Cadd9 Asus4 D  
in permanent marker, oh yeah
 G Cadd9 Asus4 D 
Just like the mark you knew you were making
        Cadd9 Em7            
Who do you think you are
 Asus4 D 
To write on his heart
    G Cadd9 / Em7 / Asus4 D 
in permanent marker

                   G Cadd9 Dsus4 
Well I found that picture
                  G Cadd9 / Em7 / Asus4 D 
Of you in that green dress
            G Cadd9 Dsus4 
Sure had a good time
                G Cadd9 / Em7 / Asus4 D 
Cleanin' up that mess
          Cadd9            
He found thirty other pieces
           Dsus4 
But he'll never find them all
          Asus4 Em7 
Tried to tape them back together
        Cadd9 Dsus4 
Now he knows to keep them off the wall


 G Cadd9 Asus4 D 
X is the shape I drew through your face 
    G Cadd9 Asus4 D  
in permanent marker, oh yeah
 G Cadd9 Asus4 D 
Just like the mark you knew you were making
        Cadd9 Em7            
Who do you think you are
 Asus4 D 
To write on his heart
    Cadd9 Em7 D 
in permanent marker


 G Cadd9 Asus4 D 
X is the shape I drew through your face 
    G Cadd9 / Em7 / Asus4 D   oh
in permanent marker, oh yeah
 G Cadd9 Asus4 D<

Hey Who Really Cares Chords – Linda Perhacs

 Artist: Linda Perhacs
Song: Hey, who really cares?
Tabbed by: DJ
5th Sept 2013


http://www.timelesslindaperhacs.com/Home.html

Tuning: Standard

CAPO: 3rd fret

Chord names and fret positions relative to capo:
 Fmaj7 +11 = 133210     E7      =  x02010   ( Cmaj7/E ) = 0xxxxx
 Em        = 244222     Am      =  x02210   ( Cmaj7/G ) = 3xxxxx
( Em/A )   = x0xxxx     Am/G    =  302210     Dm7/C     = x30211
( Em/G )   = 3xxxxx     Dm7     =  xx0211     Bm7b5     = x20201
 Fmaj7     = 133210     G7sus4  =  3x0022     A7sus2    = x02000
 E7sus4    = 020200     Cmaj7   =  x32000


***********************************************************************

  Fmaj7 +11                         Em 
|  /  /  /  /  |  /  /  /  /  |  /  /  /  /  |  /  /  /  /  |


 Fmaj7 +11                  Em Fmaj7 +11                    Em 
 Been coming down for a long time,  changes coming down... on me,
( Em/A ) ( Em/G )  Fmaj7 +11                   Em 
               Can't seem to carry them all now,
       Fmaj7 E7sus4 
Been wishing there was someone else I could be!


 E7 Am Am/G Em 
Hey, now who really cares?   Hey, won't...  somebody listen?
 Dm7 G7sus4 Cmaj7 
     Let me say what's been  on  my mind,
( Cmaj7/E ) ( Cmaj7/G )   Am Am/G Em 
   Can...    I...        bring it out  to  you?
        Fmaj7 +11              Em 
I need...       someone to talk to,
    Dm7 Dm7/C Bm7b5 
And no one else will spare me the time!


   Fmaj7 +11                        Em 
|  /  /  /  /  |  /  /  /  /  |  /  /  /  /  |  /  /  /  /  |


  Fmaj7 +11                           Em 
I used to think of... Ferris Wheel... light sounds
     Fmaj7 +11                   Em 
The Friday hum of neons, and blue,
( Em/A ) ( Em/G )    Fmaj7 +11                     Em 
             But now they're like circular cages...
        Fmaj7 E7sus4 
...Of graded tin and rusted wind!



 E7 Am Am/G Em 
Hey, now who really cares?   Hey, won't...  somebody listen?
 Dm7 G7sus4 Cmaj7 
     Let me say what's been  on  my mind,
( Cmaj7/E ) ( Cmaj7/G )   Am Am/G Em 
   Can...    I...        bring it out  to  you?
        Fmaj7 +11              Em 
I need...       someone to talk to,
    Dm7 Dm7/C Bm7b5 
And no one else will spare me the time!


   A7sus2 Fmaj7 +11     
||: /  /  /  /  |  /  /  /  /  |  /  /  /  /  |  /  /  /  /  :||(Repeat)

The Greatest Bastard Tabs by Damien Rice

 Hey guys! Thirty here! Yes, I've written the "chords" for this song, but I'm definitely
sure that some, if not all of you, are looking for TABS!

Well, good news! I've been writing up a tab for this song for a LONG time, and finally
finished! :)

Yes, I did this from looking at Youtube videos, and I KNOW it's 100% correct!
I pretty much translated it (from listening to this video of his)
http://www.youtube.com/watch?v=jJ6wktoAWeo

Here's me playing the song - albiet VERY sloppily, and a little 'wrong'. Don't worry, I
worked out the kinks and posted the correct tab below:


I also submitted the CORRECT lyrics, on AZlyrics. Without posting a link (Don't want any
advertisement trouble haha! Here are the lyrics)

I made you laugh, I made you cry
I made you open up your eyes
Didn't I?

I helped you open out your wings,
your legs, and many other things
Didn't I?

Am I the greatest bastard that you know?
The only one who let you go?
The one you hurt so much you cannot bear?

Well we were good, when we were good
When we were not misunderstood

You helped me love, you helped me live
You helped me learn how to forgive
Didn't you?

I wish that I could say the same
But when you left, you left the blame
Didn't you?

Am I the greatest bastard that you met?
The only one you can't forget?
Am I the one your truth's been waiting for?

Or am I just dreaming once again?
Some dreams are better when they end

Some make it, mistake it
Some force and some will fake it
I never meant to let you down
Some fret it, forget it
Some ruin and some regret it
I never meant to let you down

We learn to wag and tuck our tails
We learn to win and then to fail
Didn't we?

We learn that lovers love to sing
And that losers love to cling
Didn't we?

Am I the greatest bastard that you know?
When will we learn to let this go?
We fought so much, we've broken all the charm

But letting go is not the same
As pushing someone else away

So please don't let on
You don't know me
Please don't let on
I'm not here
Please don't let on
You don't love me
'Cause I know you do
I know

That some make it, mistake it
Some force and some will fake it
I never meant to let you down
Some fret it, forget it
Some ruin and some regret it
I never meant to let you down
I never meant to let you
I never meant to let you down
I never meant


Here we go:

Standard tuning (Or if you're on a full step down, capo on 2nd fret)



Intro:
-------------------------------------------------------------|
-------3-----3-----3-------3----3----3-------3-----3----3----|
-----2-----2-------------2----2------------0-----0-----------|
---0-----0-------0-------------------------------------------|
-------------------------------------------------------------|
-----------------------2-----2----2------3-----3------3------|

--------------------------------------------------------------|
-----3-----3---2s3--------------------------------------------|
---2-----2----------------------------------------------------|
--------------------------------------------------------------|
-0-----0------------------------------------------------------|
--------------------------------------------------------------|

--------------0------------------2----------------------------|
-------3--------3---------3---------3-------3-----3----3------|
-----2------2----------2------2-----------0-----0-------------|
---0------0---------------------------------------------------|
--------------------------------------------------------------|
---------------------2-----2------------3-----3------3--------|

--------------------------------------------------------------|
-----3-----3---2s3--------------------------------------------|
---2-----2----------------------------------------------------|
------------------------------------------------------------

Bare Skin Rug Chords – Blake Shelton

 Bare Skin Rug

 D 
(VS.1)

 D A 
Well the moon just came over the tree tops
 A D 
And the whippoorwill started to sing
 D 
So I slid down the hill
 G 
Got into the still
             A D 
And drank till my ears started to ring

(VS.2)

 D A 
I followed a trail to through the hollow
 A D 
To a shack back in the woods
 D 
It’s my eighteenth birthday
    G 
Honey come out and play
       A D 
Its time that we got to no good

(CHORUS)
 D G 
Now I ain’t afraid to be lonely
 A D 
But I still wanna learn about love
 D G 
I’m a hillbilly child raised in the wild
 A D 
Come lay down on my bare skin rug

A (The song changes key when Miranda sings)

(VS.3) 
 A E 
My dress is torn up and tattered
 E A 
My daddy left a long time ago
 A                                    
And my hair just hangs down
   D 
I never made it to town
           E A 
Momma said that’s where bad people go


(VS.4)

 A E 
But me and my sister been talkin'
 E A 
She’s eighteen one year older than me
 A 
She laid down with a man
 D E 
I want to understand what she says
                A 
I'll never believe 

(CHORUS)
 A D 
Now I ain’t afraid to be lonely
 E A 
But I still wanna learn about love
 A D 
I’m a hillbilly child raised in the wild
 E A 
Lay me down on your bare skin rug

(BRIDGE)
 E (?)
Now I need a woman
 A 
And I need a man
 D 
We ain’t got nobody
 E 
An' we ain’t even kin

(CHORUS)
 A D 
Now I ain’t afraid to be lonely
 E A 
But I still wanna learn about love
 A D 
I’m a hillbilly child raised in the wild
 E A 
Lay me down on your bare skin rug
(No Chord)                    A
Come lay down on my bare skin

William Tell Override Chords – Jets To Brazil

 Jets To Brazil
William Tell Override
Perfecting Loneliness
2002 Jade Tree Records
Submitted by: jeremyunderground41@yahoo.com

Key: F#, B

Tuning: Standard EADGBe

Chords used:
 F#  -    244322
 E  -     022100
 G#m  -   466444
 B  -     x24442
 Bm  -    x24432
 F#/Bb  - x143xx
 A  -     x02220
 C#  -    x46664


Intro:  F# -- x4


Verse 1:
 F# E 
  Caught making 
 F# E F# E F# E 
conversation   to your teeth
 F# E F# E 
  Kite high in Tuesday ether
 F# E F# E 
  Been gone all week
 G#m B 
   People live for 
        F# E F# E 
such a long time
 G#m B 
   Eighty years to 
         F# (hold) drumbeats  
get one right


Verse 2:
 F# E F# 
  Jet white like all day 
 E F# E F# E 
paper   comes back blank
 F# E F# E 
  No time for conversation
 F# E F# E 
  too much to say
 G#m B 
   We think you'll live 
            F# E F# E 
for such a long time now
 G#m B F# F# --
   You can take this as you like


Chorus 1:
             B 
This is the sun 
 E F# 
beating down your door
              B 
Feels like a gun
 E F# 
right between the eyes
         G#m 
Warm in your sunshine
         B Bm 
William Tell override


Post Chorus:  F# - E - x4


Verse 3:
 F# E 
  White lies and 
 F# E 
dedication 
 F# E F# E 
   Have a seat
 F# E 
  Glass actor 
 F# E 
swing your hammer
 F# E F# E 
  This isn't me
 G#m B 
   I've been searching
         F# E F# E 
for the right kind
 G#m B 
   One who doesn't 
        F# F# --
aim so high


Chorus 2:
             B 
This is the sun
   E F# 
a lifelong suicide
           B 
cold as a gun in 
 E F# 
hands that can't decide
         G#m 
Warm in her sunshine
         B Bm 
William Tell override


Interlude:  B - F#/Bb - A - F# - B - F#/Bb - A - C# -


Bridge:
 B F# 
  When I took it 
        E 
to the man
 B 
  he said "We're 
 F# E E (Hold)
doing all we can"
Then he shook my hand


Guitar Solo:  F# - E - x8, 
 G#m - B - F# - E - F# - E - G#m - B - F# - F# -


Chorus 3:
             B 
This is the sun
 E F# 
closer than you know
              B E 
Feels like a gun shining 
              F# 

Late Chords – Ben Folds V3

 (Trying to improve on what's been posted. The solo bit may be wrong.)


 Dm F Bb 
  Under some dirty words on a dirty wall,
 C F Bb 
 eating take-out by myself.
 Gm C Gm C 
  I played the shows, got back in the van
             Bb Bb 
and put the walkman on, and you were playing.
 Dm F Bb 
  Some other dive 1,000 miles away,
 C F Bb 
 I've played 1,000 times before,
 Gm C Gm C 
  like pathetic stars, the truck stops, and the rock club
           Bb Bb 
walls I always knew.  You saw them too...


                   F            
But you never will again
 C Gm Bb F 
 It's too late.    Ahh, don't you know
            C Bb 
It's been too late, for a long time.


 Dm F Bb 
  Elliot man, you played a fine guitar 
 C F Bb    
 and some dirty basketball. 
 Gm C Gm C 
  The songs you wrote got me a lot, 
              Bb  
just want to tell you that.


              F C Bb 
But it's too late,   it's too late. 
                F C Bb  
Nah, don't you know it's been too late for a long time. 

BRIDGE:
 Gm C F Bb Gm Bb 
Oh no, things were looking up, least that's what I heard.
 Gm C F Bb Gm A Dm 
Oh no, someone came and washed away your hard-earned peace of mind. 


INSTRUMENTAL:-
 F C Bb Dm F Bb Bb F Dm C Dm F Bb 
  When desperate static beats the silence up,
 C F Bb 
 And quiet truth to calm you down, 
 Gm C Gm C 
 The songs you wrote, they got me through a lot,
              Bb  
Just want to tell you that. 


              F C Bb 
But it's too late,   it's too laaaaaate. 
                F C Bb  
Nah, don't you know it's been too late for a long time. 


          F 
It's too laaaaaate.
          Bb 
It's too laaaaaate.
               F C Bb 
No, don't you know, it's been too late for a long time. 

Soular Flares Chords – The Ready Set V2

 Hey guys! johnniemikel here. This is my first tab!! ;D 
it's also one of my favorite bands, The Ready Set. 
This song is originally written in B, but I made it
a LOT easier to play in the key of C, using a Capo 
on fret 2. Have fun, it's super easy and a great, 
simple song!! :)

*CAPO 2*

 F C 
I've been thinking that the stars are all aligned, 
     Dm C 
I'm young but I am bright enough to read solar signs. 
 F C 
So, is it cool if I call you around 8 or 9?
       Dm C 
We'll talk a real long time about the days when we were young, we're still young.
(we're still young, we're still)

 Dm C 
I told you that your heart's quite big and I like it, but you were skeptical.
 Dm C 
Oh, can you feel me in the sunrise, or in the daytime? 
I like your night eyes.
 Dm C 
And you are beautiful in every single way, I would like to see your shining face every day.
        Dm 
If I'm lying may the lightning strike me down to the ground, 
        C 
'cause I don't need electric currents when you're around.
 
 F C 
I'll contrive a way to buy you diamond rings, 
      Dm C 
I'll sell all of my things or rob a jewelry store, but what good could that 
 F 
do?
                                    C 
'cause love is something that just cant be bought or sold, 
    Dm C 
It wont come when it's told it only comes from the soul.
               Dm 
So do you got soul? 

                C 
Because you've got me so wrapped up in you.
 Dm C         
So darling do you know how you got so lovely? 
 Dm 
Was it self-taught, learned from life? 
 C 
You've got skills making boys go crazy,
 Dm C 
And I've been running down the stairs again, I think you're in my head girl,
I think I'm freaking out girl.
 Dm C 
Sometimes I wonder if you're even real, if not it's cool,
I don't wanna go back to the way that it was, 
I don't wanna go back 'cause I think I may be (in love)
 F C 
I'll contrive a way to buy you diamond rings, 
      Dm C 
I'll sell all of my things or rob a jewelry store, but what good could that 
 F 
do?
                                    C 
'cause love is something that just cant be bought or sold, 
    Dm C 
It wont come when it's told it only comes from the soul.

(So do you have?)
 F  
Your relationships come and go,
     C Dm 
But what makes a difference is how you take advantage of the flirting eyes,
                  C 
Lips and thighs, romance and regrets, this is a ship wreck.
 F C 
I'm the one who fell in love and stayed that way.
 Dm C  
I'm the one who fell in love and stayed that way.
 F 
So take my advice,
 C Dm C F 
Love with your head love with your heart, love with all you have.
 F C 
I'll contrive a way to buy you diamond rings, 
      Dm C 
I'll sell all of my things or rob a jewelry store, but what good could that 
 F 
do?
                                    C 
'cause love is something that just cant be bought or sold, 
    Dm C 
It wont come when it's told it only comes from the soul.

(So do you have?)

I Wouldnt Mind Tabs by He Is We V2

 

Intro
Am, F, C, G x2

Verse:
Am          F          C           G
Merrily we fall out of line, Out of line
Am          F                   C       G          
I'd fall anywhere with you, I'm by your side
Am              F             C    G
Swinging in the rain, Humming melodies
Am              F           C     G                           
We're not going anywhere until we freeze.
   *On this C, strum once, then pick the D G B e B strings, then strum G once

Chorus Picking
  Am          F           C           G
|-------0-----------0-----------0-----------3------|
|--------------------------------------------------|
|---2-------2---2-------2---0-------0---0-------0--|
|-2---2---2---3---3---3---2---2---2---0---0---0----|
|--------------------------------------------------|
|--------------------------------------------------|
  Am          F           C           G
|-------0-----------0-----------0-----3------------|
|-------------------------------------0------------|
|---2-------2---2-------2---0-------0-0------------|
|-2---2---2---3---3---3---2---2---2---0------------|
|-------------------------------------2------------|
|-------------------------------------3------------|
Chorus:
I'm not afraid anymore
I'm not afraid.
F  C         Am      G
Forever is a long time.
    F  C                        Am      G
But I wouldn't mind spending it by your side.

Am-F-C-G
        
Am              F             C    G
Carefully we'll place for our destiny
Am               F                   C      G
You came and you took this heart And set it free.
Am             F                 C  G       Am
Every word you write and sing is so warm to me.
F   C      G       Am    F   C    G  Am F               C      G
So warm to me. I'm torn, I'm torn To be right where you are.
   *On last C, strum once, then pick the D G B e B strings, then strum G once

Chorus Picking
  Am          F           C           G
|-------0-----------0-----------0-----------3------|
|--------------------------------------------------|
|---2-------2---2-------2---0-------0---0-------0--|
|-2---2---2---3---3---3---2---2---2---0---0---0----|
|--------------------------------------------------|
|--------------------------------------------------|
  Am          F           C           G
|-------0-----------0-----------0-----3------------|
|-------------------------------------0------------|
|---2-------2---2-------2---0-------0-0------------|
|-2---2---2---3---3---3---2---2---2---0------------|
|-------------------------------------2------------|
|-------------------------------------3------------|
Chorus:
I'm not afraid anymore
I'm not afraid.
F  C         Am      G
Forever is a long time.
    F  C                        Am      G
But I wouldn't mind spending it by your side.

Bridge:
F             
Tell me everyday
C                   Am    G
I get to wake up to that smile.
           F         C
I wouldn't mind it at all.
           Am        G
I wouldn't mind it at all.
(Finger pick the next 3 lines)
  F                       C           
|-------0-----------0-----------0-----------0-----|
|-------------------------------------------------|
|---2-------2---2-------2---0-------0---0-------0-|
|-3---3---3---3---3---3---2---2---2---2---2---2---|
|-------------------------------------------------|
|-------------------------------------------------|
  Am                      G           
|-------0-----------0-----------3-----------3-----|
|-------------------------------------------------|
|---2-------2---2-------2---0-------0---0-------0-|
|-2---2---2---2---2---2---0---0---0---0---0---0---|
|-------------------------------------------------|
|------------------------

Peggy Chords – Dala

 Howdy y'all! Long time since I posted anything, but here are the chords for Dala's 
wonderful song called Peggy.

 G  - 320033
 Cadd9 - x32033
 D - x00232
 Em7  - 022033

If you want the strumming to be just like in the recording, hammer on/off the third 
string with your index while playing the Cadd9 (if you understand what I mean, which I hope 
you do).


Capo 1st fret


Intro: [ G Cadd9 G D ] x2


   G Cadd9 G D G Cadd9 G D 
I saw your shoes empty by the door
      G Cadd9 G D G Cadd9 G D 
I've never thought of them like that before
           G Cadd9 G D G Cadd9 G D 
And I can hear the silence in between the sound
             Cadd9 D G Cadd9 G 
But I still hear your voice when you are not around


       Cadd9 G Cadd9 G 
And I saw your mother's name in a book of poetry
       Cadd9 G Cadd9 G D 
And I saw your mother's hand in a favourite recipe
     Cadd9 Em7 Cadd9 Em7 
But she will never know me, no she will never know
    Cadd9 D G 
Oh Peggy, the things we leave behind


[ G Cadd9 G D ] x2


      G Cadd9 G D G Cadd9 G D 
Well this is the place where nothing stays the same
     G Cadd9 G D G Cadd9 G D 
And these are the feelings that never go away
           G Cadd9 G D G Cadd9 G D 
And I can see the time filling up your eyes
 Cadd9 D G Cadd9 G 
We are all the things we try to hide


       Cadd9 G Cadd9 G 
And I saw your mother's name in a book of poetry
       Cadd9 G Cadd9 G D 
And I saw your mother's hand in a favourite recipe
     Cadd9 Em7 Cadd9 Em7 
But she will never know me, no she will never know
    Cadd9 D G 
Oh Peggy, the things we leave behind
    Cadd9 D G 
Oh Peggy, the things we leave behind


[ G Cadd9 G D ] x2


   G Cadd9 G D G Cadd9 G D 
I saw your shoes empty by the door
          Cadd9 D G Cadd9 G 
And I've never thought of them like that before

Boxes Acoustic Chords – Patrice

 Bm A Em        

e|-----7----------5----------7--------|
b|-----7----------5----------8--------|
g|-----7----------6----------9--------|
D|-----9----------7----------9--------|
A|-----9----------7----------7--------|
E|-----7----------5----------x--------|

For rhythm it's not difficult,from what i saw of the acoustic session :

e|----x-7-x-7-x-7-x-7----x-5-x-5-x-5-x-5---x-7-x-7-x-7-x-7-x-7-x-7-x-7-x-7--|
b|----x-7-x-7-x-7-x-7----x-5-x-5-x-5-x-5---x-8-x-8-x-8-x-8-x-8-x-8-x-8-x-8--|
g|----x-7-x-9-x-9-x-9----x-6-x-6-x-6-x-6---x-9-x-9-x-9-x-9-x-9-x-9-x-9-x-9--|
D|----x-9-x-9-x-9-x-9----x-7-x-7-x-7-x-7---x-9-x-9-x-9-x-9-x-9-x-9-x-9-x-9--|
A|----x-9-x-9-x-9-x-9----x-7-x-7-x-7-x-7---x-7-x-7-x-7-x-7-x-7-x-7-x-7-x-7--|
E|----x-7-x-7-x-7-x-7----x-5-x-5-x-5-x-5---x-x-x-x-x-x-x-x-x-x-x-x-x-x-x-x--|


 Bm A 
In the right place, at the right time
 Em 
and the wrong place for long time
 Bm A 
I need some space  to clear my mind
 Em 
I need some sunshine
 Bm A 
I'm winding my way  out of the lanes
 Em 
of the main road
 Bm A 
where in my face   the red lights the breaks
 Em 
that always say no

[ Chorus ] :

 Bm A 
we're ticking our boxes living in boxes
 Em 
thinking in boxes obnoxiously
 Bm A 
put things in boxes looking at boxes 
 Em Bm 
people it's time you watch this
   A 
I know you know
 Em Bm 
we're in out on off and below these boxes
 A 
I know u know 
 Em Bm 
let's get out theses boxes
 A 
I know you know
 Em Bm 
we're in out on off and below these boxes
 A 
I know u know
 Em Bm 
let's get out theses boxes



                  A 
The future ain't what it used to be
 Em 
the past is blurry
 Bm A 
that's how it feels in my memory
 Em 
got to find my bearings
 Bm A 
between the devil and the deep deep blue
 Em 
i'm in pergatory
 Bm A 
wrong plus wrong equals you
 Em 
end of story


[ Chorus ] :
 Bm A      
we're ticking our boxes living in boxes
 Em 
thinking in boxes obnoxiously
 Bm A 
put things in boxes looking at boxes
 Em Bm 
people it's time you watch this
   A 
I know you know
 Em Bm 
we're in out on off and below these boxes
 A 
I know you know 
 Em Bm 
let's get out these boxes
 A 
I know you know
 Em Bm 
we're in out on off and below these boxes
 A 
I know you know 
 Em Bm 
let's get out these boxes


[ For this part, first, very slowly... ]

 Bm A 
They want in we want out
      Em 
I am out there, are you in?
       Bm A 
what about if you're in
             Em 
I break you out I break you in

[... then, faster ! Just listen to it ]

 Bm 
Feel the sun, feel the wind, hear the birds when they sing
             A 
let it bring tears to your eyes, salt to your skin
 Em 
have you ever been wondering if there's another thing, other than this routine, we're all living in
 Bm 
sound like a string, make it count
 A 
make it win, dream big living it, say it proud like a king
                       Em 
has there never been a

Get Up Chords – Planetshakers V3

 If you want to play Get up in your acoustic Guitar, here!

Get up

Intro:  Dm  -  Bb , G  -  F 

Verse 1:
 Dm Bb G 
   With every breath that I take
         F 
   I'll praise you
 Dm Bb G F 
   With Every move that I make
 Dm Bb G 
   With Everything that I am
         F 
   I'll praise you
 Dm Bb G F 
   There Is no other way


Pre-Chorus:
    Dm Em 
   We stand together
         F G 
   With Hearts join as one
    Dm Am 
   And we give you glory
        Bb C 
   For all you have done


Chorus 1:
 Dm C 
   Everybody Get up

   If you love Him
 Dm C 
   Everybody Get up
               Am 
   Get up and praise Him
 Dm C 
   Everybody Get up
                    Bb C 
   If you free and give him the Praise
(Intro, Verse, Refrain, Chorus)

Bridge:
    Dm 
   You,You Everything is all for You
                                  Bb 
   You we're living each day for You
        C Dm 
   You Everything is all for you,you
(Chorus 2:  Dm  -  Dm  -  Bb - C , Chorus 1, Intro)

Legends (on intro only)
 , - Short time, go to the nxt
 - - Long time

Accoustic Chords By Kenn Aducal
Thank you for using my tab, God bless
Please rate and leave a comment and any corrections. :D

http://www.facebook.com/kenn.ysrael.22

Read more: Planetshakers - Get Up Lyrics | MetroLyrics 

Drift And Die Acoustic solo Tabs by Puddle Of Mudd

 This is the solo of Drift and Die played on the Striking That Familiar Chord DVD by
Puddle of Mudd. He plays it on an acoustic guitar so the bends may be a little hard. I spent
a long time listening in slow motion and learning this, so it is 100% accurate, I 
guarantee. He also plays it tuned 1/2 down, but this tab is used for guitars in standard
tuning. Really easy once you get the hang of it

e|--9--9--7--9~~~~9--7--7-------------9--7--------------6-------------|
B|------------------------------7--9-------9--8-7-------7-------------|
G|------------------------------------------------9--6--9-------------|
D|--------------------------------------------------------------------|
A|--------------------------------------------------------------------|
E|--------------------------------------------------------------------|

e|----------------------------------------------12--------------------|
B|-9----9---------------------------12b14-12b14---12b14—b14b14-14r12--|
G|-9-11-9--11-9-11---9-99—11-1111-13--------------------------------13|
D|---------11-9-11----------------------------------------------------|
A|--------------------------------------------------------------------|
E|--------------------------------------------------------------------|

e|-13b1414141414b1515r------------------------------------------------|
B|--------------------14----------------------------------------------|
G|--------------------------------------------------------------------|
D|--------------------------------------------------------------------|
A|--------------------------------------------------------------------|
E|--------------------------------------------------------------------|

e|-12-12-9----9-9-----------------------------------9-------9---------|
B|---------12------12-9-12-12---------------9------9-------9----------|
G|-----------------------------13-11-13-11b---11b13---11b13-----------|
D|--------------------------------------------------------------------|
A|--------------------------------------------------------------------|
E|--------------------------------------------------------------------|

e|--------------------------------------------------------------------|
B|-12-9---9-----------------------------------------------------------|
G|-----11----11b13-11--9---11----9-9h119h11--9----9---6-4-6-4---------|
D|-----------------------11---11---------------11--------------s4-3---|
A|--------------------------------------------------------------------|
E|--------------------------------------------------------------------|

*Interlude solo*

e|---------—------6-7-6h7p6--6----------------------------------------|
B|----------6-7-9--------------9-7--6-7-6h7p6--7-6-7-7h9--------------|
G|------6-8-----------------------------------------------------------|
D|--6-8---------------------------------------------------------------|
A|--------------------------------------------------------------------|
E|--------------------------------------------------------------------|

e|---------—----------------------------------------------------------|
B|-9-10-12-10-9-10-9h10p9---------------------------------------------|
G|------------------------11-10-11-10--11-10b12--------11-10b12-------|
D|----------------------------------------------11-9~~~---------11-9--|
A|--------------------------------------------------------------------|
E|--------------------------------------------------------------------|

e|---------—----------------------------------------------------------|
B|-----------------------------------------------9-9-10-10-12-12b14~~~|
G|-11-10b12------11-10b12------------10-10-11-11----------------------|
D|----------11-9----------11-9-11~~~----------------------------------|
A|--------------------------------------------------------------------|
E|--------------------------------------------------------------------|

e|-131313--—---------------------12-------------

I Was Broken Chords – Marcus Foster V3

 Standard Tuning
No Capo

Do not know proper chord names for C2,C3, Am2, Am3 so improvised with chord set up below.

 C -  X32010
 C2 - X30010
 C3 - X33010

 Am -  XX2210
Am2- XX0210
Am3- XX3210

 C F 
I was tied, but now unbound
                    C 
My head is off the ground
                         F 
For a long time I was so weary
              C 
Tired of the sound, I've heard before, 
                                      Am 
The gnawing of the night time at the door, 
                            G 
Haunted by the things I've made
                           Am G 
Stuck between the burning light and the dusty shade.

 C F 
I said now I used to think the past was dead and gone, 
           C 
But I was wrong, so wrong, whatever makes you blind
            F C 
Must make you strong, make you strong.

                                  Am 
In my time I've melted into many forms, 
                         G Am 
From the day that I was born, I know there's no place to hide
                           G 
Stuck between the burning shade and the fading light,

 C C2 C3 C C C2 C3 C Am    Am2  Am3   Am C 
I was broken, for a long time, but  it's  o-  ver now
       F 
It's over now

 C 
Yes and you, and you, 
                                            F C 
Well you walk these lonely streets that people send, people send.
 C C2 C3 C F C  
There are some wounds that just can't mend, I do pretend, pretend,
                                            Am 
I am free from all the things that take my friends
                               G Am 
But I will stand here til the end, I know that I can take the moon,
                        G 
In between the burning shade and the fading light


 C C2 C3 C C C2 C3 C Am    Am2  Am3   Am C 
I was broken, for a long time, but  it's  o-  ver now
 C C2 C3 C C C2 C3 C Am    Am2  Am3   Am C 
I was broken, for a long time, but  it's  o-  ver now
 C C2 C3 C C C2 C3 C Am    Am2  Am3   Am C 
I was broken, for a long time, but  it's  o-  ver now

Sexy Plexi Tabs by Jack Johnson V2

 -------------------------------------------------------------------------------
                             Sexy Plexi - Jack Johnson
-------------------------------------------------------------------------------
Tabbed by: Teagan Mago
E-mail: TeaganMago@gmail.com

I'm not 100% sure about about the solo, but I'm sure about the rest of the song.  This 
took a long time so please show me some love. :)

Tips:
The "x" indicates a guitar slap/muted note.  I generally slap my thumb and hit multiple 
strings, while palm muting. Make sure to listen to the song and try to capture the 
timing.  You must be able to quickly change barre chord shapes to follow the original track.

Chord shapes:
F#M shape, switching to Bm shape
For pre-chorus and chorus, it's a barre chord E shape, moving up the frets.
It's important to lift up in between the chords to pluck the B and G strings as 
indicated in the tab.

Tuning: Standard

Intro Solo

e|-----------7-----5p3--2--3--0----------------------------------------------|
B|----3p2p0-----0----------------3--2--0--0h2/3/5--7-------------------------|
G|---------------------------------------------------------------------------|
D|---------------------------------------------------------------------------|
A|---------------------------------------------------------------------------|
E|---------------------------------------------------------------------------|

Verse:

Sexy sexy made up of plexi disaster

e|----------------------------------------------------------------------------|
B|-----------------------------3----3----3---0--------------------------------|
G|----3--------3---3---0-------4----4----4---0--------------------------------|
D|----4--------4---4---0---------------4--------------------------------------|
A|---------------4-----------2------------------------------------------------|
E|--2----x---2-------x------------x--------x----------------------------------|

Pushing and pulling conservative rolling, unlike plastic, easier to see through
e|----------------------------------------------------------------------------|
B|-----------------------------3----3----3---0--------------------------------|
G|----3--------3---3---0-------4----4----4---0--------------------------------|
D|----4--------4---4---0---------------4--------------------------------------|
A|---------------4-----------2------------------------------------------------|
E|--2----x---2-------x------------x--------x----------------------------------|

Just like glass with no ring, softer and sadder you sing

e|----------------------------------------------------------------------------|
B|-----------------------------3----3----3---0--------------------------------|
G|----3--------3---3---0-------4----4----4---0--------------------------------|
D|----4--------4---4---0---------------4--------------------------------------|
A|---------------4-----------2------------------------------------------------|
E|--2----x---2-------x------------x--------x----------------------------------|

Sexy sexy do your thing, learn to be shy and then you can sting
e|----------------------------------------------------------------------------|
B|-----------------------------3----3----3---0--------------------------------|
G|----3--------3---3---0-------4----4----4---0--------------------------------|
D|----4--------4---4---0---------------4--------------------------------------|
A|---------------4-----------2------------------------------------------------|
E|--2----x---2-------x------------x--------x----------------------------------|

Pre-chorus:

Plexi, plexi bend don't shatter - Once you're broken, shape won't matter

e|-----------------------------------------------------------------------|
B|-----------------------------------------------------------------------|
G|----3--------3---3---0----4---0----6---0-------------------------------|
D|----4--------4---4---0

See You Chords – Depeche Mode V2

 See You by Martin Gore
Depeche Mode - A Broken Frame

     Am F G Em C C/B 
e|---0---1---3---0--0---0------------------------------------------------|
B|---1---1---0---0--1---1------------------------------------------------|
G|---2---2---0---0--0---0------------------------------------------------|
D|---2---3---0---2--2---0------------------------------------------------|
A|---0---x---2---2--3---2------------------------------------------------|
E|---x---x---3---0--x---x------------------------------------------------|

The change from C to C/B is only played as the bass note on the A string.

Riff on Am
     Am ?  Am Am ?  Am   
e|----------------------------------------------------------------------|
B|---3---1---0---3------------------------------------------------------|
G|---2---2---2---2------------------------------------------------------|
D|---2---2---2---2------------------------------------------------------|
A|----------------------------------------------------------------------|
E|---x---x---x---x------------------------------------------------------|


Riff on  Am  x3
 Am 
All I want to do is see you again
 F G C C/B 
Is that too much to ask for?
 Am 
I just want to see your sweet smile
 F G C 
Smiled the way it was before

 F 
Well I'll try not to hold you
          Em 
And I'll try not to kiss you
 F Am G 
And I won't even touch you

 C E Am F 
All I want to do is see you
 F G C 
Don't you know that it's true?

I remember the days when we'd walk through the woods
And sit on a bench for a while
I treasure the way we used to laugh and play
And look in each others eyes

You can keep me at a distance if you don't trust my resistance
But I swear I won't touch you

All I want to do is see you
Don't you know that it's true?

 F G 
Well I know five years is a long time
 Em Am 
And that times change
 F G 
But I think that you will find
 Em 
People are basically the same

Riff on  Am  x 3

If the water's still flowing, we can go for a swim
And do the things we used to do
And if I'm reluctant you can pull me in
And we can relive our youth

Oh but we'll stay friendly like sister and brother
Though I think I still love you

All I want to do is see you
Don't you know that it's true?

Riff on  Am  x 3

So Long Sunshine Chords – Joshua Radin

 [ capo on 6th fret ]

INTRO:  G Bm C G D G 
I was just thinking
             Bm 
It's been a long time
                C 
Since I got to see you
             G D 
Tell you, I wish you were mine
                  G 
And so I've been sinking
           Bm 
Into this dark place
                 C 
Cause I need to hold you
                G D 
Tell you, I'll never be fine
            C G 
Unless you come home
                 C D 
I wish you would come home


 Em C G D 
   So long sunshine I've opened my eyes
 Em C G D 
   Clouds of grey have taken my warm sky
 Em C G D 
     Away        Still I know
        Am C G D 
You're always, you're always


 G 
Once
             Bm 
I thought I saw you
            C 
Wearing those blue jeans
                   G D 
The ones with the holes in the knees
           G 
But I was mistaken
          Bm 
It was a stranger
                      C 
And she flashed me a smile
                 G D 
As if she could somehow see 
                    C G 
That I need you to come home
                  C D 
I wish you would come home


 Em C G D 
   So long sunshine I've opened my eyes
 Em C G D 
   Clouds of grey have taken my warm sky
 Em C G D 
     Away        Still I know
        Am C G D 
You're always, you're always


 C G 
 The day broke, it turned us around
                            Em 
We ended up on the ground
           C D 
Suddenly everything changed


 Em C G D 
   So long sunshine I've opened my eyes
 Em C G D 
   Clouds of grey have taken my warm sky
 Em C G D 
     Away        Still I know
        Am C G D 
You're always, you're always