Tag: Magic

Alright chords – The Magic Gang

 all my love, @sixsugarsplease

Capo 1

 G Am 
Take one step see how it goes,
   Bm 
Nobody wants to listen,
 G Am 
Isn't it time to get what I'm owed?
   Bm F G 
Nobody thinks it's worth it,

                                   Em 
And I really wanna know if it's alright,
                            Bm G 
'Cause it's getting really hard to tell,
                                            Em 
I know I like to get it wrong from time to time,
       D 
But I think we're getting on so well,

 G Am 
She's always there when I'm not,
     Bm 
And never here to listen,
 G Am 
Party drugs don't do anything,
   Bm F G 
I don't know why I bother,


                                   Em 
And I really wanna know if it's alright,
                            Bm G 
'Cause it's getting really hard to tell,
                                            Em 
I know I like to get it wrong from time to time,
       D 
But I think we're getting on so well,

 G Am Bm G Am Bm Am G Am Bm G Am Bm F G                                    
And I really wanna know if it's alright (and I really wanna know if it's alright),
             Em Bm 
'Cause it's getting really hard to tell ('cause it's getting really hard to tell),
          G Em 
I know I like to get it wrong from time to time (I know I like to get it wrong from time to time),
       D 
But I think we're getting on so well 


 Em D 
Ooooooooooooh x4

                     Bm G 
Think we're getting on so well

My Little Pony Friendship Is Magic – The Spectacle chords – Misc Cartoons

 The Spectacle (Razzle Dazzle)

Lyrics- Amy Keating Rogers
Music- Danial Ingram
Sung by- Lena Hall [Countess Coloratura]


 Db Dbm Dbm 
Time for the spectacle 
              Ab 
Time for the show 
                E F#m 
The lights are bright and the colors glow 

              Dbm 
I'm not just anypony 
             E 
I think you know 
             Abm A 
The time is now, it's about to go! 

 Dbm E 
        Razzle dazzle 
 Dbm Ab 
        Glitz and glam 
 Dbm E Db 
        Turn it all up, it's a spectacle 

 Dbm E 
        Razzle dazzle 
 Dbm Ab 
        Glitz and glam 
 Dbm E Db 
        Turn it all up, it's a spectacle 

 F#m 
        Give me more 
 A  
        Razzle dazzle 
 Dbm B 
        Glitter eyes, big surprise 

        Lights, cameras 

 F#m A Dbm B 
Aaaaaaaaaaaaahhh (auto tune)

 Dbm E 
         Razzle dazzle 
 Dbm Ab 
         Glitz and glam 
 Dbm E Db 
         Turn it all up, it's a spectacle 

 Dbm E 
         Hear the applause 
 Dbm Ab 
         Here to impress 
 Dbm E Db 
         Not just a pony, I am the Countess!


My Little Pony Friendship Is Magic – The Magic Inside I Am Just A Pony chords – Misc Cartoons

 [Coloratura]
Intro  Ab F# Ab F# Ab F# Ab Eb Ab F# Db Eb 
I'm here to show you who I am
 Ab F# Db Eb 
Throw off the veil, it's finally time
 Ab F# Db Eb 
There's more to me than glitz and glam, ooh
 Ab F# Db Eb 
And now I feel my stars align 

     Fm Db 
For I had believed what I was sold
   Ab Eb 
I did all the things that I was told
     Fm Db 
But all that has changed, and now I'm bold
          Eb 
'Cause I know
                  Ab 
That I am just a pony
        Db Fm 
I make mistakes from time to time
     Eb Ab 
And now I know the real me
            Db Fm 
And put my heart out on the line
             Eb Fm Db Ab 
And let the magic in my heart stay true, whoa, whoa, whoa
             Bbm Cm Fm Db Ab 
And let the magic in my heart stay true, whoa, whoa, whoa
               Bbm 
Just like the magic inside of you

 Ab F# 
And now I see those colors
 Fm Db 
Right before my eyes
 Ab F# 
I hear my voice so clearly
 Fm Db 
And I know that it is right

   Fm Db 
I thought I was weak, but I am strong
      Ab Bbm 
They sold me the world, but they were wrong
     Fm Ab 
And now that I'm back I still belong
          Db 
'Cause I know

      Eb Ab  
That I am just a pony
        Db Fm 
I make mistakes from time to time
     Eb Ab 
And now I know the real me
           Db Fm 
And put my heart out on the line
             Eb Fm Db Ab 
And let the magic in my heart stay true, whoa, whoa, whoa
             Bbm Cm Fm Db Ab 
And let the magic in my heart stay true, whoa, whoa, whoa
               Bbm F# Db Fm     
Just like the magic inside of you
               Bbm Ab 
Just like the magic inside of you

My Little Pony Friendship Is Magic – Equestria The Land I Love chords – Misc Cartoons

 Ab Eb 
Equestria, the land I love
   Cm Bb Ab 
A land of harmony
                          Cm 
Our flag does wave, from high above
     Ab Fm Bb 
For ponykind to seeeeeeeeeee
 Fm Db Ab Eb 
Equestria,  a land of friends 
       Fm Db Ab Eb 
Where ponykind do roam
      Fm Db Ab Eb 
They say true friendship never ends
 Db Eb Ab 
Equestria my  home

>>>>TRIANGLE SOLO

Deep Web Tabs – Magic Potion

 Here: https://www.youtube.com/watch?v=qlyrU-lFpDc

Tunning: STANDARD


INTRO

E---------7---5-----------------------------
B-5/7~--7---7---7---7------5--7--5----------
G-5/7~------------7-----------------7~------
D------------------------7--7---------------
A-------------------------------------------
E-------------------------------------------

E---------5--3------------------------------
B----3--5------3-------3--5--6~--5--3-------
G-------------------------------------------
D--5-----------------5----------------------
A-------------------------------------------
E-------------------------------------------

*************************************************************

VERSE

E----------------------------------------
B----------------------------------------
G------7--9-9/10-9-7~--------------------
D--7h9-----------------------------------
A----------------------------------------
E----------------------------------------
                                    ONLY IN VERSE 2
E---------------------------------|---------
B--9b10-b10-b10-b10--b10r9-8-7~---|-5~------
G---------------------------------|-----7~--
D---------------------------------|---------
A---------------------------------|---------
E---------------------------------|---------


E----------------------------------------
B-----------5----5h7--5~----7------------
G--7~----7-----7--------------4-7~-------
D----------------------------------------
A----------------------------------------
E----------------------------------------


*********************************************

INTRO

VERSE

*********************************************

SOLO

E------------------------------------------------------------------
B--12b13-12b13-12b13-12b13r12-10-----10--12------------------------
G---------------------------------11---------11---9--7-9-9/11~------
D------------------------------------------------------------------
A------------------------------------------------------------------
E------------------------------------------------------------------


E------------------------------------------------------------------
B--12b13-12b13-12b13-12b13r12-10-----10--12------------------------
G---------------------------------11---------11---9--7-9-9-7~------
D------------------------------------------------------------------
A------------------------------------------------------------------
E------------------------------------------------------------------


E-------------------------------------------------------------------------------
B--12b13-12b13-14-14-12-10-----10--12----------------------10--10/12-10---------
G---------------------------11--------11---9--7-9-9-11~--11--11--------11--9----
D-------------------------------------------------------------------------------
A-------------------------------------------------------------------------------
E-------------------------------------------------------------------------------


E--------------------------------------------------------------
B--12b13-12b13-14-14-14/15-15--15/17-15------------------------
G----------------------------------------16-14-----------------
D----------------------------------------------16---17/9/8-----
A--------------------------------------------------------------
E--------------------------------------------------------------

E------------------------------------------------------------------
B------------------------------------------------------------------
G-----------------------7-7~--7------------------------------------
D------------------7--9--------9-7---------------------------------
A--5~------5-7-7/9-----------------9-7--------------5-----5~-------
E------5h7-----------------------------10--7-5-5h7----7-5----------

E------------------------------------------------------
B------------------------------------------------------
G---------------------7--9/10~-9~-7~---9/10~-9~-7------
D----------------7--9-----------------------------9~---
A--------5-7-7/9---------------

Black Magic chords – Little Mix V2

 NO CAPO! 

 E 
All the girls on the block knocking at my door!
 E 
Wanna know what it is make the boys want more!
(Pause)

 E 
Is your lover playing on your side?
 E 
Said he loves you,
 E 
But he ain't got time.
 A 
Here's the answer.
 A 
Come and get it
 A E 
At a knocked down price.


 E 
Full of honey,
 E 
Just to make him sweet.
 E 
Crystal balling,
 E 
Just to help him see
 A 
What he's been missing.
 A 
So come and get it,
 A E 
While you've still got time.


 C#m B 
Get your boy on his knees and repeat after me, say

 E 
Take a sip of my secret potion,
 E 
I'll make you fall in love.
 A 
For a spell that can't be broken,
 A 
One drop should be enough.
 C#m 
Boy, you belong to me,
 B 
I got the recipe
 A A 
And it's called black magic(and it's called black magic)

 E 
Take a sip of my secret potion,
 E 
One taste and you'll be mine.
 A 
It's a spell that can't be broken
 A 
It'll keep you up all night
 C#m 
Boy, you belong to me,
 B 
I got the recipe
 A A 
And it's called black magic(and it's called black magic)


 E 
If you're lookin' for Mr. Right,
 E 
Need that magic to change him over night.
 A 
Here's the answer.
 A 
Come and get it,
                        E 
While you've still got time.

 C#m B 
Get your boy on his knees and repeat after me, say

 E 
Take a sip of my secret potion,
 E 
I'll make you fall in love.
 A 
For a spell that can't be broken,
 A 
One drop should be enough.
 C#m 
Boy, you belong to me,
 B 
I got the recipe
 A A 
And it's called black magic (and it's called black magic)

 E 
Take a sip of my secret potion,
 E 
One taste and you'll be mine.
 A 
It's a spell that can't be broken
 A 
It'll keep you up all night
 C#m 
Boy, you belong to me,
 B 
I got the recipe
 A 
And it's called black magic (and it's called black magic)


 E 
All the girls on the block knockin' at my door!(I got the recipe)
 E 
Wanna know what it is make the boys want more!(now you belong to me) [2x]

 E 
Take a sip from my secret potion,
 E 
I'll make you fall in love.
 A 
For a spell that can't be broken,
 A 
One drop should be enough.
 C#m 
Boy, you belong to me (hey!)
 B 
I got the recipe.
 A A A E A 
And it's called, and it's called, and it's called black magic!

 E 
Take a sip of my secret potion,
 E 
One taste and you'll be mine.
 A 
It's a spell that can't be broken
 A 
It'll keep you up all night
 C#m 
Boy, you belong to me,
 B 
I got the recipe
 A A 
And it's called black magic(and it's called black magic)

 E 
Falling in love (hey!)
 E 
Falling in love (hey!)
 A 
Falling in love (hey!)
 A 
Falling in love (hey!)
 C#m 
Falling in love (hey!)
 C#m 
Falling in love (hey!)
 B 
Falling in love (hey!)
Falling in love (hey!)

 E 
Magic!

Let The Magic Fill Your Soul chords by Woodlore

 F#m A F#m A F#m A 
I know you're busy here
 A F#m A 
But would it hurt to take a break, my dear?
       F#m A 
You're working yourself mindless
       D E 
You'll drive yourself insane

       F#m A 
You're pent up all alone
       F#m A     
You're going down a lonely road
 F#m A 
There's no shame in leaning
    D E 
On somepony else

    A D A 
So follow your story, follow your song
     F#m E               
But follow your friends when the days get long
 A D A  
Lay down your soul at the fireside
 F#m A E F#m  
Lay down your burden and sing away your strife
          A E F#m 
All this time you've been alone
           A E F#m 
You don't have to be alone 
          D A E F#m       
Just let go your inhibitions now, enjoy yourself
         A E F#m 
Let the magic fill your soul

 F#m A F#m A F#m A 
I don't want you change
     F#m A 
But maybe you could rearrange
        F#m A 
'Cause what fun's living life if you don't
 D E 
live it with some friends?

    F#m A 
So you go your own way
     F#m A 
But you'll look back on life one day
     F#m A 
And you'll see the wonders of being with others
     D E 
And wish you went out to play 

 A D A 
Follow your story, follow your song
     F#m E 
But follow your friends when the days get long
 F#m D A 
Lay down your soul at the fireside
 F#m A E F#m 
Lay down your burden and sing away your strife
          A E F#m 
All this time you've been alone
           A E F#m 
You don't have to be alone, no
          D A E F#m 
Just let go your inhibitions now, enjoy yourself
         A E F#m 
Let the magic fill your soul

 A D A 
Follow your story, follow your song
 F#m E 
Follow your friends when your days get long
 F#m D A 
Lay down your soul at the fireside
 F#m A E F#m 
Lay down your burden and sing away your strife
          A E F#m 
All this time you've been alone
           A E F#m 
You don't have to be alone 
          D A E F#m 
Just let go your inhibitions now, enjoy yourself
         A E F#m 
Let the magic fill your soul

 A D A 
Follow your story, follow your song
 F#m E 
Follow your friends when your days get long
 F#m D A 
Lay down your soul at the fireside
 F#m A E F#m 
Lay down your burden and sing away your strife
          A E F#m 
All this time you've been alone
           A E</

The Mundane And The Magic solo Tabs – Dark Tranquility

 ---------------------------------------------------------------------------------------------------
                                          Artist - Dark Tranquility
                                         ***************************
                                      Song - The Mundane And The Magic
                                     **********************************
                                           Album - Fiction (2007)   
                                          ***********************
                                            - Ayreon77
                                          **********************
---------------------------------------------------------------------------------------------------
Tuning = Standard



e|------------|------------------------------|---------------------------------------------|
B|------------|------------------------------|--h-p----------------------------------------|
G|-6--5-------|------------------------------|-5-6-5---5------p----------------------------|
D|------6-8-8-|--------------h-p-------------|-------8---8-6-8-6----br---------------------|
A|------------|-----8-6--8--6-8-6------------|-------------------8------------b------------|
E|------------|-6-9---------------9--9-8-9-8-|-------------------------6-8-8------6-4-2--1-|

                                                     Pleck
e|----------------------------------------------------Pinch------------|--h-h--------|--------------|
B|------------------------------------------------------p--------2-1-2-|-1-2-4-1---1-|--------------|
G|--h-h---------h-h----h-h--------------h-h----------1-3-1---1-3-------|---------3---|-----s--s-----|
D|-0-1-3--h-h--0-1-3--0-1-3--h-h-h-----0-2-3-----1-3-------3-----------|-------------|-1--3\4/3-1-3-|
A|-------0-1-3--------------0-1-3-4--3-------1-3-----------------------|-------------|--------------|
E|---------------------------------------------------------------------|-------------|--------------|


e|-------|--h--4---b-------h-h-------|
B|-------|-1-2---2-1-~~~--1-2-4-~~~~-|
G|-1-3---|---------------------------|
D|-----1-|---------------------------|
A|-------|---------------------------|
E|-------|---------------------------|



ENJOY.......

Texas chords – Magic Man V2

 |  C  |  G  |  C  |  G  |  D  |  C  |  G  |  C  |  G  |  D  |  C  |
                 
              G C 
It's been a while, and I've been alone
                      G D C 
and you've been the only thing I've known
                 G C 
Born in the South, at home in the North
              G D C 
We could be anywhere you want

                        G C 
Now you're taking me down where you grew up
                G D C 
I wish I had known you when we were young
                 G C 
You figured me out, I know I've said it enough
                  G D 
but waiting is just too much

    C G 
So cover my skin with your sunkissed light
           C G D C 
There's a bonfire burning tonight
              G 
We could be all right
      C G D   
Evaline, Evaline, Evaline, Evaline

| C   | G   | C   | G   | D   | C   | G C G D 
Evaline, Evaline, Evaline, Evaline

               G C 
Picture it now, down the road
           G D C 
Oh just say the word and I'll go
                G C 
Wherever you are, whatever the coast
              G D C 
You are the one I care for the most

                 G C 
Remember the night we slept on the roof?
              G D C 
I didn't sleep much to tell the truth
                   G C 
Now we're the sand caught in the tide
              G D 
We laugh until we cry

        C G 
Won't you cover my skin with your sunkissed light
           C G D C 
There's a bonfire burning tonight
              G 
We could be all right
      C G D   
Evaline, Evaline, Evaline, Evaline

| C   | G   | C   | G   | D   | C   | G C G D 
Evaline, Evaline, Evaline, Evaline
     
| C   | G   | C   | G   | D   | C   | G C G 
Pull me closer, hold me tighter
       C G D 
The nights are long but the stars are brighter,
 C G 
Pull me closer, hold me tighter
 D 
Take me down, take me down, take me down

        C G 
Won't you cover my skin with your sunkissed light
           C G D C 
There's a bonfire burning tonight
              G 
We could be all right
      C G D   
Evaline, Evaline, Evaline, Evaline

 C G 
Cover my skin with your sunkissed light
           C G D 
Won't you cover my skin with your sunkissed light
           C G 
Won't you cover my skin with your sunkissed light

      C G D   
Evaline, Evaline, Evaline, Evaline

| C   | G   | C   | G   | D   | C 

Let Your Hair Down solo Tabs – Magic

 -------------------------------------------------------------------------------
                             Let Your Hair Down - Magic
-------------------------------------------------------------------------------
: Eric Fung
 Ericfung1998@hotmail.com
 
Tuning: Standard

e|-------10--------11-------13--------15---17-------18v|
B|-13b15-----14b16-----16b18----18b20----------15------|
G|-----------------------------------------------------|
D|-----------------------------------------------------|
A|-----------------------------------------------------|
E|-----------------------------------------------------|

e|---------10-------------10---------------------------|
B|-13/15--------13-11-13-------------------------------|
G|------------------------------10v\-------------------|
D|-----------------------------------------------------|
A|-----------------------------------------------------|
E|-----------------------------------------------------|

e|-----------------------------------------------------|
B|-----------------------------------------------------|
G|----------12-----------14\12-------------------------|
D|----13-15-------13-15--------15----------------------|
A|-15----------15-----------------15\13--15/17--15v----|
E|-----------------------------------------------------|

e|-----------------------------------------------------|
B|-----------------------------------------------------|
G|-----------------------------------------------------|
D|--------------------15\------------------------------|
A|--15-------------------------------------------------|
E|-----15/17-15-13-------------------------------------|

e|---------------------------------------------18/20-18|
B|-----------------------------18b20-18-15-18----------|
G|--------------17b19-17-15-17-------------------------|
D|-----15---17-----------------------------------------|
A|-17--------------------------------------------------|
E|-----------------------------------------------------|

e|------------------------------18b20------------------|
B|-18-15----------------15v\----------18-15------------|
G|-------17-15----15h17---------------------15h17-15---|
D|-------------17--------------------------------------|
A|-----------------------------------------------------|
E|-----------------------------------------------------|

e|--------------------------15-------------15----------|
B|-16r15----------------15-----------18b20-------------|
G|-------15------17b19---------------------------------|
D|----------17-----------------------------------------|
A|-----------------------------------------------------|
E|-----------------------------------------------------|

e|-----------------------------------------------------|
B|--18--15---------------------------------------------|
G|---------17-15------15h17--17b19--17v\---------------|
D|----------------17-----------------------------------|
A|-----------------------------------------------------|
E|-----------------------------------------------------|

e|------15--------13--------10-------------------------|
B|-18---18---15---15---13---13---13---11--8-------8--11|
G|-17--------14--------12--------12---10--10--10--10---|
D|-----------------------------------------------------|
A|-----------------------------------------------------|
E|-----------------------------------------------------|

e|-----------------------------------------------------|
B|-11v\------------------------------------------------|
G|-----------------------------------------------------|
D|-----------------------------------------------------|
A|-----------------------------------------------------|
E|-----------------------------------------------------|
************************************

| /   slide up
| \   slide down
| h   hammer-on
| p   pull-off
| v   vibrato
| b   Bend

Hey guys, this is my first tab, sorry for any mistakes, tell me what you think. :D
************************************

Too Much chords – Magic Man

 Ab Db 
Life is a painting on the wall
                      Ab 
Just a picture in my mind
                     Db 
A photograph that's slowly fading
     Fm Eb 
And now, that all the colors are bleeding out
                    Db Ab Eb 
I'd run away but I don't how, I'd run away but I don't know how

    Db 
So take my burning heart
               Ab Eb 
Just stay the night, and I’ll keep my promise
     Db Ab Eb 
But every single day that passes by is making me more dishonest
         Db Ab Eb 
There’s too much I make up, as soon as I wake up
         Db Ab Eb 
There’s too much I make up for me, oh oh

 Ab Db 
Well, what is left to say?
                 Ab 
What is on your mind?
               Db Fm 
Never felt so condescending but now
                          Eb 
That all the secrets are coming out
                     Db 
I can see what it’s all about
                     Ab Eb 
I can see that it's all, it's all, it’s all around

    Db 
So take my burning heart
               Ab Eb 
Just stay the night, and I’ll keep my promise
     Db Ab Eb 
But every single day that passes by is making me more dishonest
         Db Ab Eb 
There’s too much I make up, as soon as I wake up
         Db Ab Eb 
There’s too much I make up for me, ooooh

 Db Ab Eb 
 Decided to keep you out of all
 Eb Ab Eb 
 The lies and   see the way you are
 Db Ab Eb 
 Decided to keep you out of all
 Eb Ab Eb 
 The lies and   see the way you are
 Db Ab Eb 
 Decided to keep you out of all
 Eb Ab Eb 
 The lies and   see the way you are

      Db 
Just take my burning heart
               Ab Eb 
Just stay the night, and I’ll keep my promise
     Db Ab Eb 
But every single day that passes by is making me more dishonest
         Db Ab Eb 
There’s too much I make up, as soon as I wake up
         Db Ab Eb 
There’s too much I make up for me, ooooh

| Db     | Ab Eb  | Db     | Ab Eb  | Db     |

Sugar City Magic chords – Bound Stems

 Intro:
(0:00) A
(0:21)  A D A A D A 
(0:27)  Db G Db Db G Db 
(0:32)  D A D A D 
Do you recall the best years of your life? 

Well we try, well we try, well we try. 
        A 
Every man has a past, and she now seems content 

because she's moving to London to be with her kids...

       D 
When you were away, I started over again. 

When you were away, I started over again! 
              A 
Well, I'll worry about what my father's going to say 

when he comes home from work. I can take it--
                  G 
--take it in a Midwest town with the family intact. 

We went to Catholic school, the military brats. 
             A 
We stayed outside all night with our loafers all scuffed; 

the loosened-up ties, the neighborhood toughs. 
              G 
We weren't alone much, and Sundays were hell, 

but if we made it back from church my brother promised to tell. 
                 A 
He said, "Boy, how could you say it? Boy how could you say it?

Boy how could you say it, say it, say it, say it..."

 D 
Bop bop bop bop ba, bop bop bop bop ba
 A  
Bop bop bop bop ba, bop bop bop bop ba  x2

                         D 
She tells me that show now believes it's a matter of principle. 
              A 
Now the neighborhood's gone she won't change them. 
            D A 
She said, "I can see!" She said, "I can see all the empty lots..." 

She kept her married name when he left, for the children's sake.

 G 
My friends still gather around the block! 
                                      A 
With their loosened ties and their guilty faces! 
                         G 
On our bikes we were skeleton thin. 

My father came to shake my hand: 
                     A 
"Take care of the family. I'll explain when you're an older man. I've been found out now."

    D A G G F#m F#m D A 
--tap tap tap tap tap tap tapping on the window for a space on our floor: 
                      D A G G 
"You can stay where papa just left; there's a spot on the fireplace mat. 
                F#m F#m D A 
Welcome to our home. Welcome to our home."
                  D G 
"Welcome to our home, please excuse the mess--"
                                F#m A 
"...But they left it like that last night." Bop bop bop bop ba...

                          D                       
I've been keeping this family afloat for years.  
  G F#m 
I've been keeping this family afloat for years.
                          D 
I've been keeping this family afloat for years.
  G F#m 
I've been keeping this family afloat for years.

(I've been keeping this family afloat for years.)

 Em A D A D G 
La la, la la la la, lalalalala
 Em A D A D G 
La la, la la la la, lalalalala
 Em A D A D G 
We lie asleep in our homes. The evening train goes by, 
 Em A D A D G 
I pull the covers up close. We can hide all night. 
 Em A D A D G 
We lie

We Are The 21St Century Ambassadors Of Peace And Magic Tabs – Foxygen

 Foxygen - We Are The 21st Century Ambassadors Of Peace And Magic


INTRO

E Eb D Db

e|--------------------------|
B|--------------------------|
G|-------------9-7----------|
D|-------------9-7----------|
A|--5---6--7-7--------------|
E|--------------------------|

Free, free


VERSE 1 (riff continues)
Well, it really isn't even too hard to be
In the twenty, twenty, twenty-first century
We are the twenty-first century
It really isn't even too hard to be
(Say it again)


CHORUS
E            D            A            G
We are the 21st century ambassadors of peace and magic

- back to the riff
(Fish man)

E            Eb           D           Db
We are the 21st century ambassadors of peace and magic

- back to riff


VERSE 2
See the big orange slug in the purple grass
Well, if you ain't ready for it to pass
If you're really really really really not ready to pass
Well, the twenty-first century's gonna kick your ass, boy
(Say it again)


CHORUS
E                 D
We're the twenty, lots of money
   A          G            (back to riff)
Philosopher ambassadors of peace and magic

E  D \
A  G / x2


BRIDGE (see below for the finger placement of these chords)
              Em                    Em/M7
But if you're not in class then you cannot answer
    Em7                   Em/M6              C
You can't be funny if you want to make money now


CHORUS
Em          A             E            A
We are the 21st century ambassadors of peace and magic
Em          A            E           A
We are the 21st century, we are the 21st century
Em          A             E            A
We are the 21st century ambassadors of peace and magic
Em                A
On Blue Mountain, God insists you
E              A
Put the pieces back together

- back to riff


VERSE 3
Free to live, free to do what I want
Go out and get it

e|----|
B|----|
G|--7-| at some points, the riff suddenly stops with this chord
D|--7-|
A|----|
E|----|

e|-------------------------------|
B|-------------------------------|
G|-------------------------------|
D|-----5/7-7---7-5/9---9-9-7-5---|
A|-7---------------------------7-|
E|-------------------------------|

E  G
A  B

e|-------------------------------|
B|-10~---------------------------|
G|-------------------------------|
D|---------5---------------------|
A|------\5-----7\5/7-------------|
E|-------------------------------|

E  G 
A  B 

E  G
A       B
 Yeah I do what I want 

E  G 
A  B 

- back to riff (while slowing down)

- transition to outro:

e|--------------------------|
B|--------------------------|
G|--------------------------|
D|-77777777777--------------| (shred)
A|--------------------------|
E|--------------------------|



OUTRO

Am   G       \
Dm   Dmsus2   x4 (fade out)
Am   G       /

___________________________________
CHORDS

   Em   Em/M7 Em7  Em/M6  Dmsus2
e|-7----7-----7-----------(5)-----|
B|-8----8-----8-----8------5------|
G|-9----8-----7-----6------7------|
D|-9----9-----9-----9------7------|
A|-7----7-----7-----7------5------|
E|--------------------------------|









If I Believed chords – Starkid

 Intro:  D D 
If I believed in wishes
 G/D 
As silly as it seems.
 E 
I'd find that hidden cave,
Turn back the sands of time
      C/E C#dim/E 
And save you.
 D 
If I believed in dreams

 D 
If I believed in magic
 G/D 
If I believed in good
 E 
I'd be the best vizier,
I'd make our troubles disappear
    C/E C#dim/E  
If I believed I could.

 Bmin/D 
But wishes are dreams
And dreams are pretend
 C Cm 
So science and reason win out in the end.

 Em C#dim/E 
Science says you're dead and gone forever,
 D Bmin/D 
Reason says I'm talking to the air,
 Em 
But something in my heart
 C#dim/E 
Some secret hidden part
F#min                             C#dim/E 
Illogically insists that you are there.
 A/E 
Somewhere.

 D 
If I believed in wishes
 G/D 
If I can find the key
 E 
Perhaps it's not to late
To change the course of fate
 C/E C#dim/E 
Cause after all I must be pretty great
 D 
If you believed in me.

Up On The Ridge chords – Dierks Bentley

 Up On The Ridge by Dierks Bentley

Capo on 4

Intro.: Come with me tonight   Am Am7 Am G Am Am7 Am G 
Let's blow out these city lights, let's just leave it all behind
 Am Am7 Am G 
Get up where the air is still, you can hear the whippoorwill
 Am Am7 Am G 
Start a fire pass the shine, won't be home till mornin' time
 Am Am7 Am G 
Shout your name out in the wind, confess my love for you again
 Am Am7 Am G Am Am7 
Give you all I got to give, that's how we live up on the ridge

           Am D Am7 Am Am7 
Won't you come with me tonight where moonlight drifts into your eyes
         Am D Am7 Am Am7         
I just want one little kiss when we get high up on the ridge

Inst.:  Am Am7 Am G Am Am7 Am G 
Hey now honey child, we'd be runnin' free and wild
 Am Am7 Am G 
No one care what you do, ain't law to answer to
 Am Am7 Am G 
Dance around in the dirt, listen to them crickets chirp
 Am Am7 Am G 
Hear old Jake start to howl, when he hears that ol' hoot owl
 Am Am7 Am G Am Am7 
Give you all I got to give, that's how we live up on the ridge

           Am D Am7 Am Am7 
Won't you come with me tonight where moonlight drifts into your eyes
         Am D Am7 Am Am7         
I just want one little kiss when we get high up on the ridge

Inst.:  Am Am7 Am G Am Am7 Am G 
Come on girl it's almost dawn, let's get it fore the magic’s gone
 Am Am7 Am G 
Tall, tall grass all around, come on lay that blanket down
 Am Am7 Am G 
Wild flowers just like you, lay on me like mornin' dew
 Am Am7 Am G 
Now take my hand, walk with me, sun come up through them trees
 Am Am7 Am G Am Am7 
Give you all I got to give, that's how we live up on the ridge

           Am D Am7 Am Am7 
Won't you come with me tonight where moonlight drifts into your eyes
         Am D Am7 Am Am7         
I just want one little kiss when we get high up on the ridge
         Am D Am7 Am Am7         
I just want one little kiss when we get high up on the ridge

Outro.:  Am Am7 Am G   (repeat to end)

Magic chords – Coldplay V6

  Kwint & Troy (from Sir Jupiter).


Artist : Coldplay
Song : Magic
Album : Ghost Stories [2014]


CapoII

Special chords used:
 G/B  [x20003]

INTRO:  C  - -  G/B  |  D  - -  G/B 

VERSE:

          C          
Call it magic
 G/B D 
Call it true
 G/B C 
I call it magic,
 G/B D 
When I'm with you
 G/B C 
And I just got broken
 G/B D 
Broken into two
 G/B C 
Still I call it magic,
 G/B D G/B C                                      
And I don't, And I don't, And I don't, And I don't
      G/B         
No I don't, it's true
    D 
I don't, No, I don't, No, I don't, No, I don't
              G/B 
Want anybody else but you
    C 
I don't, No I don't, No I don't, No I don't
      G/B 
No I don't, it's true
    D 
I don't, No I don't, No I don't, No I don't
              G/B 
Want anybody else but you


Ooh part:  C  - -  G/B  |  D  - -  G/B 


VERSE:

          C 
Call it magic
 G/B D 
Cut me into two
 G/B C 
And with all your magic,
 G/B D 
I disappear from view
 G/B C 
And I can't get over, 
 G/B D 
Can't get over you
 G/B C 
Still, I call it magic
 G/B D G/B 
Such a precious truth


CHORUS:

        C                                      
And I don't, And I don't, And I don't, And I don't
      G/B         
No I don't, it's true
    D 
I don't, No, I don't, No, I don't, No, I don't
              G/B 
Want anybody else but you
    C 
I don't, No I don't, No I don't, No I don't
      G/B 
No I don't, it's true
    D 
I don't, No I don't, No I don't, No I don't
              G/B 
Want anybody else but you


BRIDGE:

        C G/B D 
Wanna fall, I fall so far
          C G/B D 
I wanna fall, fall so hard
   G/B C 
I call it magic
        G/B D 
And I call it true
 G/B C G/B D 
Call it maaaaaa-aaa-gic

    G/B C G/B D 
Oououh       Oououh         x2


VERSE:

            G/B C 
And if you were to ask me
                 G/B D 
After all that we've been through
         G/B C 
"Still believe in magic?"
       G/B D 
Well yes, I do
    G/B C 
Oh yes, I do
 G/B D 
Yes, I do
    G/B C 
Oh yes, I do
    G/B D 
Of course I do

OUTRO:
 C  - -  G/B  |  D  - -  G/B 


If you have any suggestions/corrections, please let us know in the comments!

Magic solo Tabs by Coldplay

                              Magic - Coldplay
-------------------------------------------------------------------------------

This is a variation of what Jonny Boy plays at 3:13 but sounds perfect when played to 
the song. Such an awesome part. Listen to the song for the correct strumming rhythm.



Tuning: Standard

e|-------------------------------------------------------------------------------|
B|-------------------------------------------------------------------------------|
G|----6----2-----------6------4--------------------------------------------------|
D|----7----0-----------7------2--------------------------------------------------|
A|---------0------------------2--------------------------------------------------|
E|---------5------------------0--------------------------------------------------|

Magic chords – Coldplay V3

 Magic
Coldplay
Ghost Stories

 @marco2012

^^^^^^^^^^^^^^^^^^^^^^^^^
Standard Tuning
NO Capo
^^^^^^^^^^^^^^^^^^^^^^^^^     

 C#m D 
Call it magic
  A E 
Call it true
 C#m D 
I call it magic,
 A E 
when I'm with you
 C#m D 
And I just got broken
 A E 
Broken into two
 C#m D 
Still I call it magic,
   A E 
when I'm next to you


  D 
And I don't, And I don't, And I don't, And I don't
 A 
No I don't, it's true
   E 
I don't, No, I don't, No, I don't, No, I don't
 A 
Want anybody else but you
   D 
I don't, No I don't, No I don't, No I don't
 A 
No I don't, it's true
   E 
I don't, No I don't, No I don't, No I don't
                          D E 
Want anybody else but you


  C#m D 
Call it magic
 A E 
Cut me into two
  C#m D 
And with all your magic,
 A E 
I disappear from view
                
 C#m D 
And I can't get over,
 A E 
can't get over you
  C#m D 
Still, I call it magic
 A E 
Such a precious truth


      D 
And I don't, And I don't, And I don't, And I don't
 A 
No I don't, it's true
   E 
I don't, No, I don't, No, I don't, No, I don't
 A 
Want anybody else but you
   D 
I don't, No I don't, No I don't, No I don't
 A 
No I don't, it's true
   E 
I don't, No I don't, No I don't, No I don't
                          D E 
Want anybody else but you
       D 
Wanna fall,
            E 
I fall so far
         D 
I wanna fall,
           E 
I fall so hard


 C#m D 
Call it magic
  A E 
Call it true
 C#m D E 
I call it magic,

 D E D E D 
And if you were to ask me
                            E 
After all that we've been through
                    D 
"Still believe in magic?"
             E 
Well yes, I do
           D 
Oh yes, I do
        E 
Yes, I do
           D 
Oh yes, I do
             E D E D E  (repeat until fade)
Of course I do

Texas chords – Magic Man

 E B E B F#/A# E B E B F#/A# E B E 
It's been a while, and I've been alone
                      B F#/A# E 
and you've been the only thing I've known
                   B E 
Born in the South, at home in the North
              B F#/A# E 
We could be anywhere you want

                        B E 
Now you're taking me down where you grew up
                B F#/A# E 
I wish I had known you when we were young
                 B E 
You figured me out, I know I've said it enough
                  B F#/A# 
but waiting is just too much

    E B 
So cover my skin with your sunkissed light
           E B F#/A# E 
There's a bonfire burning tonight
              B 
We could be all right
      E B F#/A# 
Evaline, Evaline, Evaline, Evaline

 E B E B F#/A# E B E B F#/A# 
Evaline, Evaline, Evaline, Evaline

               B E 
Picture it now, down the road
           B F#/A# E 
Oh just say the word and I'll go
                B E 
Wherever you are, whatever the coast
              B F#/A# E 
You are the one I care for the most

                 B E 
Remember the night we slept on the roof?
              B F#/A# E 
I didn't sleep much to tell the truth
                   B E 
Now we're the sand caught in the tide
              B F#/A# 
We laugh until we cry

           E B 
Won't you cover my skin with your sunkissed light
           E B F#/A# E 
There's a bonfire burning tonight
              B 
We could be all right
      E B F#/A# 
Evaline, Evaline, Evaline, Evaline

 E B E B F#/A# E B E B F#/A# 
Evaline, Evaline, Evaline, Evaline

 E B E B F#/A# E B E B F#/A# E B 
Pull me closer, hold me tighter
       E B F#/A# 
The nights are long but the stars are brighter,
 E B 
Pull me closer, hold me tighter
 F# 
Take me down, take me down, take me down

           E B 
Won't you cover my skin with your sunkissed light
           E B F#/A# E 
There's a bonfire burning tonight
              B 
We could be all right
      E B F#/A# 
Evaline, Evaline, Evaline, Evaline

 E B 
Cover my skin with your sunkissed light
           E B F#/A# 
Won't you cover my skin with your sunkissed light
           E B 
Won't you cover my skin with your sunkissed light
      E B F#/A# 
Evaline, Evaline, Evaline, Evaline

 E B E

Magic Woman Touch chords – Hollies

 MAGIC WOMAN TOUCH - The Hollies

A Hollies single from late 1972.  Not a hit in their native England, #33 in Australia 
(#12 in Adelaide) and #60 in USA early 1973.  Still a nice song though and deserved to be 
a bigger hit.


Capo 2

 D  -  D  -  G  -  D D  -  D  -  G  -  D D Em G D 
  I'm looking through at yesterday,   all my life thrown away,
 D Em G D 
  keep searchin' for the same old clue,   how can I get to you.

 D D G D 
Cast your spell upon me one more time, I wanna feel your magic woman touch.
 D D G D 
Cast your spell upon me one more time, I wanna feel your magic woman touch.

 D Em G D 
  I know there's been a change in me,   ask me why, I don't know,
 D Em G D 
  my friends no longer speak to me,     pass me by, I don't know.

 D D G D 
Cast your spell upon me one more time, I wanna feel your magic woman touch.
 D D G D 
Cast your spell upon me one more time, I wanna feel your magic woman touch.

 G D 
  I've made up my mind    on what I'm gonna do,
 Em D 
  this feeling inside is makin' it all right, makin' it
 Em A 
all right, makin' it   all right with

 D  -  D  -  G  -  D 
me
 D  -  D  -  G  -  D D D G D 
Cast your spell upon me one more time, I wanna feel your magic woman touch.
 D D G D 
Cast your spell upon me one more time, I wanna feel your magic woman touch.
 D D G D 
Cast your spell upon me one more time, I wanna feel your magic woman touch.
 D D G D 
Cast your spell upon me one more time, I wanna feel your magic woman touch.

(fade)