Tag: maroon

Girls Like You chords by Maroon 5 ft. Cardi B

[Verse 1]
       C                 G              Am  F
Spent 24 hours, I need more hours with you
                C              G     Am F
You spent the weekend getting even, ooh
               C                  G                  Am  F
We spent the late nights making things right between us

[Pre-Chorus]
             C
But now it's all good, babe
           G
Roll that back wood, babe
          Am       F
And play me close

[Chorus]
         C                              G
'Cause girls like you run 'round with guys like me
                   Am
'Til sun down when I come through
         F
I need a girl like you, yeah yeah
          C                            G
Girls like you love fun, and yeah, me too
                 Am
What I want when I come through
          F
I need a girl like you, yeah yeah

[Post-Chorus]
C                G
Yeah yeah yeah, yeah yeah yeah
Am       F
I need a girl like you, yeah yeah
C                G
Yeah yeah yeah, yeah yeah yeah
Am                 F
I need a girl like you

[Verse 2]
         C                 G              Am  F
I spent last night on the last flight to you
              C                 G      Am  F
Took a whole day up tryna get way up, ooh
                  C                 G              Am     F
We spent the daylight tryna make things right between us

[Pre-Chorus]
             C
But now it's all good, babe
           G
Roll that back wood, babe
          Am       F
And play me close

[Chorus]
         C                              G
'Cause girls like you run 'round with guys like me
                   Am
'Til sun down when I come through
         F
I need a girl like you, yeah yeah
          C                            G
Girls like you love fun, and yeah, me too
                 Am
What I want when I come through
          F
I need a girl like you, yeah yeah

[Post-Chorus]
C                G
Yeah yeah yeah, yeah yeah yeah
Am       F
I need a girl like you, yeah yeah
C                G
Yeah yeah yeah, yeah yeah yeah
Am                 F
I need a girl like you

[Bridge]
C
Maybe it's 6:45
G
Maybe I'm barely alive
Am                                   F
Maybe you've taken my shit for the last time
C
Maybe I know that I'm drunk
G
Maybe I know you're the one
Am                                   F
Maybe you're thinking it's better if you drive

[Chorus]
        C                               G
'Cause girls like you run 'round with guys like me
                   Am              F
'Til sun down when I come through
I need a girl like you, yeah
        C                               G
'Cause girls like you run 'round with guys like me
                   Am              F
'Til sun down when I come through
I need a girl like you, yeah
C                             G
Girls like you love fun, and yeah, me too
                 Am
What I want when I come through
           F
I need a girl like you, yeah yeah

[Post-Chorus]
C                G
Yeah yeah yeah, yeah yeah yeah
Am       F
I need a girl like you, yeah yeah
C                G
Yeah yeah yeah, yeah yeah yeah
Am                 F
I need a girl like you

[Outro]
C G Am F

Maps chords – Maroon 5 V7

 A5 B5 C#5 
I miss the taste of a sweeter life (e-4h5p b-5)
 A5 B5 C#5 
I miss the conversation (a-5/1)
 A5 B5 C#5 
I'm searching for a song tonight (e-4h5p b-5)
 A5 B5 C#5 
I'm changing all of the stations (a-5/1)
 A5 B5 C#5 
I like to think that we had it all (e-4h5p b-5)
 A5 B5 C#5 
We drew a map to a better place (a-5/1)
 A5 B5 C#5 
But on that road I took a fall (e-4h5p b-5)
 A5 B5 C#5 
Oh baby why did you run away? (a-5/1)

       F#5 
I was there for you
          F#5 
In your darkest times
        G#5 
I was there for you
           G#5 
In your darkest nights

               A5 B5 
But I wonder where were you (e-4h5p b-5)
     C#5 
When I was at my worst (a-5/1)
              A5 B5 
Down on my knees (e-4h5p b-5)
         C#5 
And you said you had my back (a-5/1)
              A5 B5 
So I wonder where were you (e-4h5p b-5)
 C#5 A5 B5 
All the roads you took came back to me (a-5/1)
          C#5 A5 
So I'm following the map that leads to you (e-4h5p b-5)
      B5 C#5 
The map that leads to you (a-5/1)
                     A5 
Ain't nothing I can do (e-4h5p b-5)
      B5 C#5 
The map that leads to you (a-5/1)
    C#5 A5 
Following, following, following to you (e-4h5p b-5)
      B5 C#5 
The map that leads to you (a-5/1)
                     A5 
Ain't nothing I can do (e-4h5p b-5)
      B5 C#5 
The map that leads to you (a-5/1)
   C#5 
Following, following, following (e-4h5p b-5)


 A5 B5 C#5 
I hear your voice in my sleep at night (e-4h5p b-5)
 A5 B5 C#5 
Hard to resist temptation (a-5/1)
 A5 B5 C#5 
Cause something strange has come over me (e-4h5p b-5)
             A5 B5 C#5 
And now I can't get over you (a-5/1)
             A5 B5 C#5 
No I just can't get over you (e-4h5p b-5)

Fm5
I was there for you
Fm5
In your darkest times
 G#5 
I was there for you
 G#5 
In your darkest nights


               A5 B5 
But I wonder where were you (e-4h5p b-5)
     C#5 
When I was at my worst (a-5/1)
              A5 B5 
Down on my knees (e-4h5p b-5)
         C#5 
And you said you had my back (a-5/1)
              A5 B5 
So I wonder where were you (e-4h5p b-5)
 C#5 A5 B5 
All the roads you took came back to me (a-5/1)
          C#5 A5 
So I'm following the map that leads to you (e-4h5p b-5)
      B5 C#5 
The map that leads to you (a-5/1)
                     A5 
Ain't nothing I can do (e-4h5p b-5)
      B5 C#5 
The map that leads to you (a-5/1)
    C#5 A5 
Following, following, following to you (e-4h5p b-5)
      B5 C#5 
The map that leads to you (a-5/1)
                     A5 
Ain't nothing I can do (e-4h5p b-5)
      B5 C#5 
The map that leads to you (a-5/1)

(Clapping)
Oh oh oh
Oh oh oh
Yeah yeah yeah
Oh oh
Oh oh
Oh I was there for you
Oh In you darkest times
Oh I was there for you
Oh In your darkest n

Sugar Acoustic chords – Maroon 5

 Sugar - acoustic
Capo 1

------0-------------------0--------------------0--------------------------- 
--------3---1--1-------------3---1--1-------------3---1---1h3------3----1---- 
--------0------0---0---------2------2---2---------2-------2--------0-------- 
--3------------3---3--------------------0----0------------0----------------- 
--------x----------x----0----x------0---x---------x------------x-----3------ 
--------x----------x---------x----------x---------x------------x------------ 


 Fmaj7 Am7 
I'm hurting baby, I'm broken down
 Dm                               
I need your loving, loving
 C 
I need it now
 Fmaj7 
When I'm without you
 Am7                 
I'm something weak
 Dm C 
You got me begging, begging I'm on my knees


Pre-chorus
 Fmaj7 C 
I don't wanna be needing your love
 Am7 
I just wanna be deep in your love
 Dm C 
And it's killing me when you're away
                 Fmaj7 
Ooh baby, cause a bullet don't care where you are
 Am7 
I just wanna be there where you are
 Dm C 
And I gotta get one little taste

Chorus

 Fmaj7 
Sugar
 Am7 
Yes please
 Dm C 
Won't you come and put it on on me
 Fmaj7 Am7 
Oh right here, cause I need
 Dm C 
Little love and little sympathy
 Fmaj7 
Yeah you show me good loving
 Am7              
Make it alright
 Dm C 
Need a little a sweetness in my life
 Fmaj7 
Sugar
 Am7 
Yes please
 Dm C 
Won't you come and put it on on me


 Fmaj7 
My broken pieces
 Am7 
You pick them up
 Dm 
Don't leave me hanging, hanging
 C 
Come get me some
 Fmaj7 
When I'm without ya
 Am7 
I'm so insecure
 Dm 
You are the one thing, the one thing
 C 
I'm living for

 Fmaj7                            
I don't wanna be needing your love
 Am7 
I just wanna be deep in your love
 Dm C 
And it's killing me when you're away
                 Fmaj7 
Ooh baby, cause I really don't care where you are
 Am7 
Just wanna be there where you are
 Dm C 
And I gotta get one little taste


Chorus 2

 Fmaj7 
Sugar
 Am7 
Yes please
 Dm C 
Won't you come and put it on on me
 Fmaj7 Am7 
Oh right here, cause I need
 Dm C 
Little love and little sympathy
 Fmaj7 
Yeah you show me good loving
 Am7              
Make it alright
 Dm C 
Need a little a sweetness in my life
 Fmaj7 
Sugar
 Am7 
Yes please
 Dm C 
Won't you come and put it on on me

(Bridge)
     
Yeah
 C                        
I want that red velvet
 Am7                       
I want that sugar sweet
 Dm7                         
Don't let nobody touch it
   C                         
Unless that somebody is me
 C                  
I gotta be a man
 Am7                         
There ain't no other way
 Dm7 C                          
Cause girl you're hotter than a Southern California day
 C                             
I don't wanna play no games
 Am7                        
I don't gotta be afraid
 Dm7                               
Don't give all that shy shit
 C               
No make up on
         
That's my


Chorus

 Fmaj7 
Sugar
 Am7 
Yes please
 <spa

Animals intro Tabs – Maroon 5

 I did not create all of this, I only translated it into tab. 
Let me know what you think.
If you like it and want more of the song, just let me know.



(/) Slide Up  (\) Slide Down  (h) Hammer On  (p) Pull Off  (b) Bend (r) Release (~) Vibrato


Into Part 1:

E|--------------------------------------|--------------------------------------|
B|--------------------15----15----------|--------------------15----15----------|
G|-----------------------------16----16-|-----------------------------16----16-|
D|-14-14-14---14---14-------------------|-14-14-14---14---14-------------------|
A|--------------------------------------|--------------------------------------|
E|--------------------------------------|--------------------------------------|


Intro Part 2:

E|------------------------------------------------|
B|------------------------------------------------|
G|------------------------------------------------|
D|--14-16-17-16-14~-16-17-16-14~-16-17-16-14~-12~~|
A|------------------------------------------------|
E|------------------------------------------------|


Into Part 1: 

E|--------------------------------------|--------------------------------------|
B|--------------------15----15----------|--------------------15----15----------|
G|-----------------------------16----16-|-----------------------------16----16-|
D|-14-14-14---14---14-------------------|-14-14-14---14---14-------------------|
A|--------------------------------------|--------------------------------------|
E|--------------------------------------|--------------------------------------|


Intro Part 2:

E|------------------------------------------------|
B|------------------------------------------------|
G|------------------------------------------------|
D|--14-16-17-16-14~-16-17-16-14~-16-17-16-14~-12~~|
A|------------------------------------------------|
E|------------------------------------------------|


Intro Part 3:

E|------------|--------------------|--------------------|
B|------------|--------------------|--------------------|
G|------------|---7-9--9----7-9-9--|---7-9--9----7-9-9--|
D|-14-14-14\--|-9---------9--------|-9---------9--------|
A|------------|--------------------|--------------------|
E|------------|--------------------|--------------------|

        

Sweetest Goodbye solo Tabs by Maroon 5

 Just FYI, this is my first tab.  It could probably use some improvement but I'm 
really proud of it.

Its for the main solo part.  I can't hear the jamming/vocal part clear enough to tab out.


e|-11~~~11~~~11~~~h14-p11--------------------11----11-10---------------|
B|------------------------------7-11-9----11----11---------------------|
G|--------------------------7-9----------------------------------------|
D|---------------------------------------------------------------------|
A|---------------------------------------------------------------------|
E|---------------------------------------------------------------------|

e|------------------14------14------14-----------------------------------|
B|14b    16-14b16-14b16---14b16---14b16-----14b16-14b16b14-11------------|
G|--------------------------------------------------------13-11----------|
D|--------------------------------------------------------------13-------|
A|-----------------------------------------------------------------------|
E|-----------------------------------------------------------------------|

e|---------------------------------------------------------------------|
B|---------------------------------------------------------------------|
G|------11----------11-11~~~-11-13-11-10-10-11-11-13-11-10-10-11-13----|
D|11-13----13-11-13----------------------------------------------------|
A|---------------------------------------------------------------------|
E|---------------------------------------------------------------------|

e|---------------------------------------------------------------14-14-|
B|--------------------------------------------9*b11b9b11----9/11-11-11-|
G|15~~~--13-11-13-11--------------------8--8-------------8-------------|
D|-------------------15-13-12------8-11--------------------------------|
A|------------------------------11-------------------------------------|
E|---------------------------------------------------------------------|

e|14-11-14-14-14-11----------------------------------------------------|
B|11----11-11-11----11-14-11-14-11-14----------------------------------|
G|---------------------------------------------------------------------|
D|---------------------------------------------------------------------|
A|---------------------------------------------------------------------|
E|---------------------------------------------------------------------|

At this point the whole band is jamming with vocals and its hard to make out the guitar part.

Enjoy!

Goodnight Goodnight Tabs by Maroon 5 V2

 -------------------------------------------------------------------------------
                       Goodnight Goodnight - Maroon 5
-------------------------------------------------------------------------------
: gtudor25

Hello. This is the tab and chords for the whole song. I think it is a pretty easy
and accurate way to play it. (The single notes in the chorus and some in the outro
are heard in the background and are nice to add to make the song more dynamic. I
recommend using a loop pedal to add layers.) Enjoy!

Tuning: Standard (EADGBE)

Chords Used: Key of D
Verses: Bm - G - D - A
Chorus: D - A - Bm - G
Bridge: Bm - G - D - A

D - XX0232
A - X02220
Bm - X24432
G - 320033

Intro
e|---------------------------------------------------------------------|
B|---------3---------------2-----------------3--------------2---0------|
G|-------4----4---4------4----4---4--------0---0---0------0-------0----|
D|-----4--------4------4--------4--------0-------0------0-----------4--|
A|---2---------------2-------------------------------------------------|
E|-------------------------------------3--------------3----------------|

Verse 1
e|--------------------------------------------------------------------|
B|---------3---------------2-----------------3--------------2---------|
G|-------4----4---4------4----4---4--------0---0---0------0---0---0---|
D|-----4--------4------4--------4--------0-------0------0-------0-----|
A|---2---------------2------------------------------------------------|
E|-------------------------------------3--------------3---------------|

e|--------2---------------------------|
B|------3----3---3--------2---0-------|
G|----2--------2--------2-------0-----|
D|--0-----------------2-----------4---|
A|------------------0-----------------|
E|------------------------------------|

e|-------------------------------------------------------------------|
B|---------3---------------2-----------------3--------------2--------|
G|-------4----4---4------4----4---4--------0---0---0------0---0---0--|
D|-----4--------4------4--------4--------0-------0------0-------0----|
A|---2---------------2-----------------------------------------------|
E|-------------------------------------3--------------3--------------|

e|--------2-----------------0------0---|
B|------3----3---3--------2---2----2---|