Tag: means

It All Means Nothing Tabs by Screaming Females

 Screaming Females
"It All Means Nothing"
Standard tuning
Intro/Chorus:
e[---5-5-7-7-7---------------------5-5-7-7---------------|
b[---5-5-9-9-7---------------------5-5-9-9---------------|
g[---6-6-9-9-8---------------------6-6-9-9-9/-11/-14-14--|
d[---7-7-9-9-9-9/11-11-11b-11p9----7-7-9-9---------------|
a[---7-7-7-7-9------------------12-7-7-7-7-7/-9/--12-12--|
e[---5-5-7-7-7---------------------5-5-7-7---------------| x2
A A E E B A A E E
Verse:
"You take what's mine and face me like you're blind..."
e[----------------------------------------------------------------|
b[----------------------------------------------------------------|
g[---16-13-14-14--16-13h14p13-11-9-16-13-14-14--16-13h14p13-11-9--|
d[---14-14-14-14--14-14-14-14-9--7-14-14-14-14--14-14-14-14-9--7--|
a[----------------------------------------------------------------|
e[----------------------------------------------------------------| x1
Intro/Chorus x 2
"I'm on a mission to smash the mirror..."
Verse x 1
"I want to buy everything that you sell..."
Dissonant solo - play whatever you want.
Solo:
Under the solo (A/E/B/F# A/E/B/B)
e]----------------------------------------------------------|
b]---/15h17p15-14h15p14----14-------------------------------|
g]----------------------16----16p14h16-------14----14-16-14-|
d]-------------------------------------14h16----16----------|
a]----------------------------------------------------------|
e]----------------------------------------------------------|


e]-----------------------------------------------------|
b]-----------------------------------------------------|
g]-\12-11h12p11----11----------------------------------|
d]--------------14----14-12-14-12h14p12----------------|
a]--------------------------------------14-12-14b-12~~-|
e]-----------------------------------------------------|

e]------------------------------------------------------------------17-|
b]------------------------------------------------15p14----14-15-17----|
g]---16b-14-------12--------------14-16p14--14h16-------16-------------|
d]----------12-14----16b-14-14h16---------16---------------------------|
a]---------------------------------------------------------------------|
e]---------------------------------------------------------------------|

Bridge:
"You keep me cruel and blind..."
e]---10-10-10-9-9-9-9-7------------------------|
b]---7--7--7--7-7-7-7-7-10-10-10-7-7-7-7-7-----|
g]----------------------7--7--7--7-7-7-7-7-----|
d]---------------------------------------------|
a]---------------------------------------------|
e]---------------------------------------- x 6-|

Bridge continued....
e]---5-5--5-5-5-5--------------------5-5--5-5---------------|
b]---5-5--5-5-5-5--------------------5-5--5-5---------------|
g]---6-6--6-6-6-6--12-12-12-12-11-11-6-6--6-6--12-11--14-14-|
d]---7-7--7-7-7-7--------------------7-7--7-7---------------|
a]---7-7--7-7-7-7--10-10-10-10-9--9--7-7--7-7--10-9---12-12-|
e]---5-5--5-5-5-5--------------------5-5--5-5---------------|

e]-5-5--5-5-5-5--------------------5-5--5-5---------------|
b]-5-5--5-5-5-5--------------------5-5--5-5---------------|
g]-6-6--6-6-6-6--12-12-12-12-11-11-6-6--6-6--12-11--14-14-|
d]-7-7--7-7-7-7--------------------7-7--7-7---------------|
a]-7-7--7-7-7-7--10-10-10-10-9--9--7-7--7-7--10-9---12-12-|
e]-5-5--5-5-5-5--------------------5-5--5-5---------------|

e]-----------|
b]-----------|
g]---9---12--|
d]---9---12--|
a]---7---10--|
e]-----------|
     E   G

Verse x1
"You take what's mine and face me like you're blind..."
Outro:
e[-----------------------------------------------------------|
b[------------------------------------------------10---------|
g[-----------9----9-11-9-6-4----------9---9h11-------9-11b-9-|
d[---9h11------11-------------9h11------11-----0-------------|
a[--------0-----------0-0-0-0------0-------------------------|
e[----------------------------------------------------

A Means To An End Tabs by Joy Division

 Hello folks! Since there wasn't a tab available, I tried to create one for you!

It's my first tab so I hope you like it. :)


Song: A Means To An End.
Artist: Joy Division.
 Closer (1980).
Guitarist: Bernard Sumner.

Guitar intro (2x):

e-----------------------------------------------------------------------------|
B-----------------------------------------------------------------------------|
G-----------------7-------------7-------------7-------------------------------|
D--5--7--5--7--5----5--7--5--7----5--7--5--7----------------------------------|
A--------------------------------------------------0------2--2--2--2--2--2--2-|
E----------------------------------------------------0----0--0--0--0--0--0--0-|

A--2--2--2--2--2--2--2-|
E--0--0--0--0--0--0--0-|

Verse ( A legacy so far improved):

e-----------------------------------------------------------------------------|
B-----------------------------------------------------------------------------|
G-----------------------------------------------------------------------------|
D-----------------------------------------------------------------------------|
A--5--5--5--5--5--5--5--5--4--4--4--4--3--3--3--3--2--2--2--2--2--2--2--2--2--|
E--3--3--3--3--3--3--3--3--2--2--2--2--1--1--1--1--0--0--0--0--0--0--0--0--0--|

A--2--2--2--2--2--2--2-|
E--0--0--0--0--0--0--0-|

e-----------------------------------------------------------------------------|
B-----------------------------------------------------------------------------|
G-----------------7-------------7-------------7-------------------------------|
D--5--7--5--7--5----5--7--5--7----5--7--5--7----------------------------------|
A--------------------------------------------------0------2--2--2--2--2--2--2-|
E----------------------------------------------------0----0--0--0--0--0--0--0-|

A--2--2--2--2--2--2--2-|
E--0--0--0--0--0--0--0-|

Chorus (I always looked to you):

e-----------------------------------------------------------------------------|
B-----------------------------------------------------------------------------|
G-----------------7-------------7-------------7-------------------------------|
D--5--7--5--7--5----5--7--5--7----5--7--5--7----------------------------------|
A--------------------------------------------------0------2--2--2--2--2--2--2-|
E----------------------------------------------------0----0--0--0--0--0--0--0-|

A--2--2--2--2--2--2--2-|
E--0--0--0--0--0--0--0-|


e-----------------------------------------------------------------------------|
B-----------------------------------------------------------------------------|
G-----------------------------------------------------------------------------|
D-----------------------------------------------------------------------------|
A--5--5--5--5--5--5--5--5--4--4--4--4--3--3--3--3--2--2--2--2--2--2--2--2--2--|
E--3--3--3--3--3--3--3--3--2--2--2--2--1--1--1--1--0--0--0--0--0--0--0--0--0--|

A--2--2--2--2--2--2--2-|
E--0--0--0--0--0--0--0-|

e-----------------------------------------------------------------------------|
B-----------------------------------------------------------------------------|
G-----------------7-------------7-------------7-------------------------------|
D--5--7--5--7--5----5--7--5--7----5--7--5--7----------------------------------|
A--------------------------------------------------0------2--2--2--2--2--2--2-|
E----------------------------------------------------0----0--0--0--0--0--0--0-|

A--2--2--2--2--2--2--2-|
E--0--0--0--0--0--0--0-|

Bridge (I put my trust in you):

e-----------------------------------------------------------------------------|
B-----------------------------------------------------------------------------|
G-----------------------------------------------------------------------------|
D-----------------------14--14--14--14--14--14--14--14--14--12--12--12--12----|
A--2--2--2--2--2--2--2--14--14--14--14--14--14--1