Tag: mi

Do Re Mi chords by Blackbear

[Intro] (2x)
e|--0--3--5--7--10--7-7----------------3--2-|
B|--1------------7------10--10--8--10--5--1-|
G|--2------------7---------------------4--0-|
D|--2------------7--------------------------|
A|--0------------7--------------------------|
E|------------------------------------------|

[Verse 1]
           Am
If I could go back to the day we met
  G
I probably would just stay in bed
    D
You run your mouth all over town
    F                 G
And this one goes out to the sound
   Am
Of breaking glass on my Range Rover
G
Pay my back or bitch it's over
D
All the presents I would send
F               G
Fuck my friends behind my shoulder
Am                      G
Next time I'ma stay alseep
D                          F      G
I pray the Lord my soul to keep, Oh

[Pre-Chorus]
Am
And you got me thinking lately
G
Bitch, you crazy
    D
And nothing's ever good enough
   F                         G
So I wrote a little song for ya
N.C.
It go like

[Chorus]
Am              G                     D
Do, re, mi, fa, so fucking done with you, girl
F           G                Am
So fucking done with all the games you play
  G                D
I ain't no tic-tac-toe
   F                     G
So send the X and O's on another note
    Am              G                     D
I'm do, re, mi, fa, so fucking done with you babe
   F                     G             Am
So send the X and O's on another note, I'm ghost
N.C.
Yeah, yeah, yeah, oh

[Verse 2]
           Am
If I could go back to the day we met
  G
I probably woulda stayed in bed
    D
You wake up everyday
    F                    G
and make me feel like im incompetent
Am
Designer shoes and Xanax tabs
G
Complimetns your make-up bag
    D
You never had to buy yourself a drink
    F                 G
Cuz everybody want to tap that ass

[Bridge]
Am
And you got me thinking lately
G
Bitch, you crazy
    D
And nothing's ever good enough
   F                         G
So I wrote a little song for ya
N.C.
It go like

[Chorus]
Am              G                    D
Do, re, mi, fa, so fucking done with you girl
F          G                  Am
So fucking done with all the games you play
G                  D
I ain't no tic-tac-toe
   F                      G
So send the X and O's on another note
    Am              G                    D
I'm do, re, mi, fa, so fucking done with you, babe
    F                    G
So send the X and O's on another note, Im ghost

Hacelo Por Mi chords – Attaque 77

 intro:E-C#m-E-C#m-A-F#m-D-B

E|--------------------------------------------------|
B|--------------------------------------------------|
G|--------------------------------------------------|
D|------------6------------------6------------------|
A|-------2-4--4---7--7--6--6--4--4--7--7--6--6--4---|
E|-0-2-4--------------------------------------------|

E|-----|--------------------------------------------------|
B|-0---|--------------------------------------------------|
G|-1---|--------------------------------------------------|
A|-2---|-------2-4--4---7--7--6--6--4--4--7--7--6--6--4---|
D|-2---|------------6---------------6---------------------| 
E|-0---|-0-2-4--------------------------------------------|

       E C#m 
yo no se lo que senti esa tarde que te vi
        A 
Yo pensaba en otras cosas,
         B 
fuiste mucho para mi.

      E        
Yo creia en tus palabras,
      C#m 
tu mirada me engaño
       A 
Ahora se que no sos mia
      B 
la culpa la tuve yo.

         A 
Yo no quise lastimarte,
        C#m 
jamas tuve esa intencion
          A 
fuimos presos de un impulso,
       F#m B 
yo solo buscaba amor.

        E 
Cuando te veia en la calle,
       C#m 
no podia evitar
           A 
que el silencio se adueñara,
        B 
me quedaba sin hablar.

         E 
Y ahora se que no sos mia
       C#m 
la culpa la tuve yo,
        A 
si queres podes marcharte,
      B          
solo te pido un favor...

             A 
Si aun te queda algo de amor
         C#m 
dentro de tu corazon
        A 
no me mires a los ojos
         F#m D B 
que me muero, yo me muero de dolor...
             E 
Hacelo Por Mi


       E 
Todo eso que senti
       C#m 
esa tarde que te vi,
       A   
ahora no tiene sentido,
              B 
fue un mal sueño para mi.

          E 
Y al pensar en tu mirada,
         C#m 
ya no puedo sonreir
         A 
si queres podes marcharte,
       B 
solo te quiero decir...

             A 
Si aun te queda algo de amor
         C#m 
dentro de tu corazon
        A 
no me mires a los ojos
         F#m D B 
que me muero, yo me muero de dolor...
             E 
Hacelo Por Mi

E-C#m-E-C#m-A-F#m-D-B

E|--------------------------------------------------|
B|-----9--7--9----9--7---------5--4--5----5--4------|
G|-9-9----------9------9---6-6----------6-------6---|
D|--------------------------------------------------| x2
A|--------------------------------------------------|
E|--------------------------------------------------|
Hacelo por MI                     Hacelo por MI

  F#5 B5 
 oh, no, no, no, no, no, no,

   A5 B5 
 yeah,yeah

 E5 A5 
Hacelo por mi.

Late Mi Corazon chords – Danna Paola

 C#m A E B C#m A E B 
Aaah aaah aaah aaah
    C#m A E B 
Aaah aaah aaah aaah aaah


 C#m A 
Si me quedo tu te vas
     E B 
Si yo me voy te quedas
 C#m A 
Yo te estoy queriendo y tu
    E B 
Te ves que no te enteras
 C#m A 
Todos se han dado cuenta
 F# B 
Todos ya menos tu


 E B 
Late, late, late mi corazón
 C#m A B 
Desesperado por ti
 C#m 
No me haces caso y
 A 
Yo al fracaso no
 E B 
No lo puedo resistir


 E B 
Late, late, late mi corazón
 C#m A B 
Acelerado por ti
 C#m 
No sé ya lo que hacer
 A 
Ni como conseguir
 E B 
Que tu te fijes en mi


    C#m A E B 
Aaah aaah aaah aaah
    C#m A E B 
Aaah aaah aaah aaah aaah


 C#m A 
Yo me muero por estar
 E B 
Siempre a tu lado
 C#m A 
Pero después tu ni me ves
 E B 
Estás tan despistado
 C#m A 
Eres como una estrella
 F# B 
Lejana, fría, sin luz


 E B 
Late, late, late mi corazón
 C#m A B 
Desesperado por ti
 C#m 
No me haces caso y
 A 
Yo al fracaso no
 E B 
No lo puedo resistir


 E B 
Late, late, late mi corazón
 C#m A B 
Acelerado por ti
 C#m 
No sé ya lo que hacer
 A 
Ni como conseguir
 E B 
Que tu te fijes en mi


 C#m A 
Late, late, late mi corazón
 E B 
Late, late, late mi corazón
 C#m A 
Late, late, late mi corazón
 E B 
Late, late, late mi corazón


 E B 
Late, late, late mi corazón
 C#m A B 
Desesperado por ti
 C#m 
No me haces caso y
 A 
Yo al fracaso no
 E B 
No lo puedo resistir


 E B 
Late, late, late mi corazón
 C#m A B 
Acelerado por ti
 C#m 
No sé ya lo que hacer
 A 
Ni como conseguir
 E B 
Que tu te fijes en mi


 E B 
Late, late, late mi corazón
 C#m A B 
Desesperado por ti
 C#m 
No me haces caso y
 A 
Yo al fracaso no
 E B 
No lo puedo resistir


 E B 
Late, late, late mi corazón
 C#m A B 
Acelerado por ti
 C#m 
No sé ya lo que hacer
 A 
Ni como conseguir
 E B 
Que tu te fijes en mi


 C#m A 
Late, late, late mi corazón
 E B 
Late, late, late mi corazón
 C#m A 
Late, late, late mi corazón
 E B 
Late, late, late mi corazón.

Vuelve Mi Amor solo Tabs by Intocable

 e------8b~----8b~-7p5-3-5-3~--14b-rbr-12----------------------------------|
b----------------------------------------15-----------15------15----------|
g--7-7----7-7-------------------------------r14-12~---14br-12-14br-12~----|
d-------------------------------------------------------------------------|
a-------------------------------------------------------------------------|
E-------------------------------------------------------------------------|

e--19-17-19-15-------------------15------------------------15-------------|
b--------------12----15-12----------------12-15br-12---15b----r15--13~----|
g-----------------14-------(14)x----(14)x---------------------------------|
d-------------------------------------------------------------------------|
a-------------------------------------------------------------------------|
E-------------------------------------------------------------------------|

e-------20/19-17-15-----------------------| b = bend
b--15~--------------r15~------------------| ~ = vibrato
g-----------------------------------------| p = pull off
d-----------------------------------------| r = release bend
a-----------------------------------------| (xx)x = (traste)mute
E-----------------------------------------| r(xx) = solo release(traste)

Cambiare Mi Tristeza chords Vtical V3

 A(sus2) D(sus2) F#m E 
Cambiaré mi triste- za

 A(sus2) ,  D(sus2) F#m E 
Cambiaré mi vergüen- za

 A(sus2) D(sus2) F#m E A D , F#m , E 
Los entregaré por el gozo de Dios

 A(sus2) D(sus2) F#m ,  E 
Cambiaré mi dolo- or

 A(sus2) D(sus2) F#m E/G# 
Y mi enfermeda- ad

 A(sus2) D(sus2) F#m E A D , F#m , E 
Los entregaré por el gozo de Dios

 A(sus2) D(sus2) F#m E 
Sí Señor sí sí Señor

 A(sus2) D(sus2) F#m E/G# 
Sí Señor sí sí Señor

 A(sus2) D(sus2) F#m E 
Sí Señor sí sí Señor

 A(sus2) D(sus2) , F#m , E Am én

Verso

 A(sus2) D(sus2) F#m E 
Estando atribulado pero nunca derrotado

 A(sus2) D(sus2) F#m E/G# 
Y perseguido esté ho- oy

 A(sus2) D(sus2) 
Maldiciones no me afectan

 F#m E 
Pues yo sé a quien voy

 A(sus2) D(sus2) F#m E 
En Su gozo fuerte soy

Pre-Coro

 E E E E E 
Aunque triste en la noche yo esté

 G D(sus2) 
Gozo viene en la mañana

Cambiare Mi Tristeza chords Vtical V2

 Intro:  A D F#m E  x2

Coro
 A(sus2) D(sus2) F#m E 
  Cambiaré mi  triste - za
 A(sus2) D(sus2) F#m E 
   Cambiaré mi vergüen - za
 A(sus2) D(sus2) F#m E A D ,  F#m ,  E 
  Los entregaré    por el gozo de Dios

 A(sus2) D(sus2) F#m ,  E 
   Cambiaré mi dolo-     or
 A(sus2) D(sus2) F#m E/G# 
   Y - mi enfermeda-   ad
 A(sus2) D(sus2) F#m E A D ,  F#m ,  E 
 Los    entregaré   por el gozo de Dios

Precoro 1
 A(sus2) D(sus2) F#m E 
Sí      Señor sí, sí   Señor
 A(sus2) D(sus2) F#m E/G# 
Sí      Señor sí, sí   Señor
 A(sus2) D(sus2) F#m E 
Sí      Señor sí, sí    Señor
   A(sus2) D(sus2) ,  F#m ,  E Am én

Verso
     A(sus2) D(sus2) F#m E 
Estando   atribulado pero nunca derrotado
 A(sus2) D(sus2) F#m E/G# 
  Y  perseguido esté ho - oy
       A(sus2) D(sus2) 
Maldiciones no  me afectan
        F#m E 
Pues yo sé a quien   voy
 A(sus2) D(sus2) F#m E 
  En Su  gozo   fuerte soy

puente
 E E E E E 
 Aunque triste en la noche yo esté
        G D(sus2) 
Gozo viene en la mañana

Empieza todo
Precoro x2

 A D F#m E 
LA, LA, LA, LA x2

coro

 A D F#m E 
LA, LA, LA, LA …..

Mi Viejo Tabs by Ratatat V2

 -------------------------------------------------------------------------------
                             Mi Viejo - Ratatat
-------------------------------------------------------------------------------
: hgrf93
 hgrf93

Tuning: Standard

e|---------------------------------------------------------|
B|---------------------------------------------------------|
G|-----3--------3--7---------------------------------------|
D|--5-----5--5---------------------------------------------|  X2
A|---------------------------------------------------------|
E|---------------------------------------------------------|

e|---------------------------------------------------------|
B|---------------------------------------------------------|
G|---7--5--8--7--5----5--3--5--3----3--2-------------------|
D|----------------------------------------3------------1h3-|
A|------------------------------------------3----3h5-------|
E|---------------------------------------------------------|

First part of the riff later changes to this:
e|---------------------------------------------------------|
B|---------------------------------------------------------|
G|----3--------3--7-------3-----3-----3--7-----------------|
D|-5-----5--5----------5-----5-----5-----------------------|
A|---------------------------------------------------------|
E|---------------------------------------------------------|

Legend:

************************************
| h   hammer-on
************************************

Schamts Eich Ihr Ruhig Fuer Mi chords – Hans Soellner

 B 
Immer wor wer do, der mir sein Schmorn vorgreht hot,
 C# 
Der mir Ratschläge geb'n hot wie man richtig lebt.
 A 
Der ma g'sogt hat wir mas zu wos bringa kon,
 E B 
Und der mir vorgjammert hot, wos ma nu ois fehlt.
Mei Vadda hot g'sogt, I sois amoi bessa haum wir er
Und hot mi zwunga, das i sochng moch die i gor net woit.
Hot ma g'sogt wia ma sie oziagt, und wia ma sie benimmt
Und wann i mir meine Hor abscheidn soi.
In da Schui mechtns ma des lerna, wos i mei lebdog eh nimma brauch
Und wir i erm do forn in sein Orsch eini kriach.
Das i a wenn i im Recht bin mei Meu hoidn muas.
Und wie man Leit de ma net mog freundlich griast.
Wie man sich bedonkt, für jedn Scheiß
Und das da Ehrliche oiwei da G'scheite is.
Owa nur wenn ich des dau hät, wos ma er do forne sogt,
Dann hät i a die bessan Notn kriagt.

 B 
Schamts eich ihr ruhig für mi,
 C# 
I scham mi a so für euch
 A 
Losst's mi mocha wos I mocha mog.
 E B 
Jo i red euch doch a net drei.

 B 
Losts mi o ziang wos I mog,
 C# 
Losts mi mei Lebn lebn wiar is vatrog.
 A E 
Sats froh, das net dauschn miasts mit mir,
 B E 
I dat mi a net wohlfühlen wenn i wa wir ihr.

Imma hob i des G'fühl ghobt das aner hinter mir steht.
Der mi zu dem mocha meg, wos a jetzt grod braucht.
DEr ma g'sogt hot das i anständig essn soi,
Owa i hob g'fressn wir die grösste Sau.
I mochs Gegenteil von dem, das ihr glaubts, des i mocha soi,
Und meine Hor schneid i ma, wenns euch nimma störn.
Leckts mi doch kreizweis wenn's woits, owa herts endlich auf,
Des geschwafel kann i nimma hean.
I hobs gott sei dank bis heit no net nötig ghabt,
Das i moch wos andere Leit zu mir sagn.
Owa wenn i an der Isar druntn penn weil i ka Wohnung gfundn hob,
Und für a Loch woit i net 500 Mark zoiln.
I sog wos i mog und wenns euch olle nu so wenig passt
Und wenns olle glaubts, das is nir zu wos bring.
Füh schlimma wa für mi, das i sowieso irgendwann amoi spann,
Das i bloß anglong worn bin mei gaunzes Lebn.

Schamts euch ihr ruich für mi, i scham mi a so für euch,
Losts mi mocha wos i mocha mog, i red euch doch a net drei.

Losts mi oziang wos i mog, losts mi ausgflippt umanaundarena jedn dog.
Seits froh das net dauschn miasts mit mir,
I dad mi a net wohlfühln wenn i wa wir ihr,
Jo leit sats froh das net dauschn miasts mit mir,
í dad mi a net wohlfühln wenn i wa wir ihr.

E Mi Mancherai Tabs by Karma Connection

   E Mi Mancherai
(Karma Connection)
band offical site: http://www.karmaconnection.net/
____________________________________________________________________________________________
 masho90@libero.it



Intro:

   Dm                Dm                Bbm6              A
e|-------1-0-1-----|-------1-0-1-----|-------1-0-1-----|---------5-------|
B|-----3-------3---|-----3-------3---|-----2-------2---|-------5---5-----|
G|---2-----------2-|---2-----------2-|---0-----------0-|-----6-------6---|
D|-0---------------|-0---------------|-----------------|---7-----------7-|
A|-----------------|-----------------|-1---------------|-0---------------|
E|-----------------|-----------------|-----------------|-----------------|



Verse 1:

   Dm                Dm                Bbm6              A
e||-------1-0-1-----|-------1-0-1-----|-------1-0-1-----|---------5-------||
B||-----3-------3---|-----3-------3---|-----2-------2---|-------5---5-----||
G||---2-----------2-|---2-----------2-|---0-----------0-|-----6-------6---|| (x4)
D||-0---------------|-0---------------|-----------------|---7-----------7-||
A||-----------------|-----------------|-1---------------|-0---------------||
E||-----------------|-----------------|-----------------|-----------------||

   G                 D                 A9                A9
e|-3-------3-----3-|-2-------0h2-----|-0---------------|-----------------|
B|-3---------3-----|-3-----------3---|-0-------0-----0-|-----0---0h2-----|
G|-0-----------0---|-2-------------2-|-2---------2-----|-2-----2-----2---|
D|-0---------------|-0---------------|-2-----------2---|---2-----------2-|
A|-2---------------|-----------------|-0-----0---------|-----------------|
E|-3---------------|-----------------|-----------------|-----------------|

   G                 D                 A9                A9
e|-3-------3-----3-|-2-------0h2-----|-0---------------|-----------------|
B|-3---------3-----|-3-----------3---|-0-------0-----0-|---2-----2-------|
G|-0-----------0---|-2-------------2-|-2---------2-----|-----2-----------|
D|-0---------------|-0---------------|-2-----------2---|-------2---------|
A|-2---------------|-----------------|-0-----0---------|------------0h2p0|
E|-3---------------|-----------------|-----------------|-----------------|

   Em                Bm                D                 A
e|---------0-------|---------2-------|-----------------|-0-------0-------|
B|---------0-------|---------3-------|-----------------|-2---2---2-------|
G|---------0-------|-4-------4-------|-7-----7-7---7\--|-2---2---2-------|
D|---------2-------|-4-------4-------|-7---7-7-7---7\--|-2---2---2-------|
A|---------2-------|-2-------2-------|-5---5-5-5---5\--|-0---0---0--0h2p0|
E|-0-------0-------|-----------------|-----------------|-----------------|

   Em                Bm                D                 A
e|---------0-------|---------2-------|-----------------|-0-------0-------|
B|---------0-------|-3-------3-------|-3---------------|-2---2---2--2--2-|
G|-0-------0-------|-4-------4-------|-2-------4-------|-2---2---2--2--2-|
D|-2-------2-------|-4-------4-------|-0----/7---7-4---|-2---2---2--2--2-|
A|-2-------2-------|-2-------2-------|---------------7-|-0---0---0--0--0-|
E|-0-------0-------|-----------------|-----------------|-----------------|

   A
e|-0-------0-------|
B|-2---2---2--2--2-|
G|-2---2---2--2--2-|
D|-2---2---2--2--2-|
A|-0---0---0--0--0-|
E|-----------------|



Chorus 1:

| Bm    | G     | D     | A     |
| Bm    | G     | D     | A     |
| G     | D     | A     | A     |



Bridge:

    D                 D                 D                 D
e||-----------------|-----------------|-----------------|-----------------||
B||-----------------|-----------------|-----------------|-----------------||
G||-----7---7-7-----|-----7---7---7---|-----7---7-7-----|-7---7---7---7---|| (x2)
D||-7-7-7-7-7---7---|-7-7-7---7---7---|-7

Jeste Mi Schazis chords – Jaromir Nohavica

 Ami Ami/G F 
1.  Jeste se mi o tobe  zda,  jeste mi nejsi  lhostejná,
   Ami Ami/G F 
   jeste  me budí v  noci  takový zvlástní  pocit,
   Dmi F 
   jeste  si zouvám boty,  abych snad neuspinil
   D#dim E 
   nás  nový behoun  v síni.
  
               Ami G 
  R: Jeste mi  scházís,  jeste jsem ne privykl,
           C C/H Ami 
  ze nepri cházís,   ze neprij des,
               F E 
  ze zvonek ne zazvoní,  dvere se  neotevrou,
             Ami G C 
  ze proste  jinde  s jiným   jses,
   E F E Ami Ami/G F Ami Ami/G F 
   jeste  mi  scházís,   jeste  stále mi  scházís

 
  2. Jeste je na zrcadle dech, mlhavá stopa po tvých rtech
  a v kazdém koute jako cert kulhavý skrítek Adalbert,
  jeste te piju v káve a snídám v bílé vece,
  jeste jsi ve vsech vecech.          

Mi Negrita intro Tabs by Devendra Banhart

 e|-----------------------------------------------------------------|
B|--------------------------------------77-5-----5----77-5-----5---|
G|---7-6----66-7-9-9-7-6--66-7-9-9-7-6-------7-6---7-------7-6---7-|
D|-------5---------------------------------------------------------|
A|-----------------------------------------------------------------|
E|-----------------------------------------------------------------|


e|-------------------------------10-9-7----------|
B|--------------------------------------10-7-/12-|
G|--66-7-9-9-7-6--66-7-9-9-7-6-------------------|
D|-----------------------------------------------|
A|-----------------------------------------------|
E|-----------------------------------------------|

Mi Amor Tabs by Dj Ashba V2

 DJ ASHBA - Mi Amor
by Mcmartini
(Mi Amor / Sweet Child O' Mine by D.j. Ashba - 7m25s on Youtube)


   0:04
D#|-------------------------------------------------------------------------------------|
A#|----------------------------------------------8-8/11-9-9-8-8br-----------------------|
F#|------10h12--10h12~--10-10/12\10--8--------10------------------10~-------------------|
C#|------------------------------------10--10-------------------------------------------|
G#|-------------------------------------------------------------------------------------|
D#|--15\--------------------------------------------------------------------------------|
                                                         
D#|-------------------------------------------------------------------------------------|
A#|------11-------8~--9~--------11----9-9-8-8br-----------------------------------------|
F#|----7---10~--7---7-----8-10-----10-----------11-10-8-10br-8-10-8---------------------|
C#|--8------------------8---------------------------------------------------------------|
G#|-------------------------------------------------------------------------------------|
D#|-------------------------------------------------------------------------------------|
  
   0:20
D#|---------------------------------------------------------11--------------------------|
A#|----------------------------------------------8-8/11-9-9----9~-----------------------|
F#|--10h12--10h12~--10-10/12\10--8--------10--------------------------------------------|
C#|--------------------------------10--10-----------------------------------------------|
G#|-------------------------------------------------------------------------------------|
D#|-------------------------------------------------------------------------------------|

D#|-----8-8/10----10/11---11p13~----13\-----------11-10-8-------------------------------|
A#|--/9--------11-------11-------11------9-8-8br----------11-9-8------------------------|
F#|-------------------------------------------------------------------------------------|
C#|-------------------------------------------------------------------------------------|
G#|-------------------------------------------------------------------------------------|
D#|-------------------------------------------------------------------------------------|
   
   0:34
D#|--11-10--------11-10-------------------------------11--------------------------------|
A#|--------11-----------11---------------13----11-9-9----9~-----------------------------|
F#|-----------12~----------12~-----10h12----12------------------------------------------|
C#|-----------------------------10------------------------------------------------------|
G#|-------------------------------------------------------------------------------------|
D#|-------------------------------------------------------------------------------------|

D#|--10-8---------10-8------------------------------------------------------------------|
A#|-------11-----------11-------------11----9-8-8-9-8h9p8h9-8h9p8h9p8h9p8h9p8h9p8h9p8\--|
F#|----------10~----------10~----8h10----10---------------------------------------------|
C#|---------------------------8---------------------------------------------------------|
G#|-------------------------------------------------------------------------------------|
D#|-------------------------------------------------------------------------------------|
  
   0:50
D#|--------------------------------13br~--13-11-13-11-10h11p10h11p10h11p10h11p10--------|
A#|------13-15-15b-15~\------13-15------------------------------------------------------|
F#|--/12-----------------/13------------------------------------------------------------|
C#|-------------------------------------------------------------------------------------|
G#|-------------------------------------------------------------------------------------|
D#|------------------------------------------

Mi Regalo chords – Gadiel Espinoza

     Bbadd2        Bbadd2/ D Ebmaj7 Fsus 
La navidad es un tiempo de fiesta
        Bbadd2    Gm7 (add4)  Cm7 Fsus 
Un escenario de gozo, de dicha y de paz
         Ab/Bb          Bbadd2/ D Ebmaj7 Ebm9/Gb 
Es la razón del amor y la entrega
            Bbadd2/ F Gm7 (add4)  Cm7 Fsus 
Que en un pesebre el Mesías nos vino a dar
           Cm7 
Por eso quiero cantar


Coro

      Bbadd2    Cm7 
Mi regalo es Jesús
      Dm7 Ebmaj7 
Mi regalo de amor
        Dm7 Gm7 (add4)  Cm7 Fsus 
El es todo lo que yo soñé
       Gm7 (add4)  Ebmaj9/Ab 
Puedo hoy sonreír
      Ebadd2/ G Ebm9/Gb 
Y por el soy feliz
      Bbadd2/ F Cadd2/E Fsus F 
Ahora tengo razón de vivir
             Bbadd2  Ebmaj9 Cm7  Ebadd2
En esta navidad

          Bbadd2   Bbadd2/ D Ebmaj7 Fsus 
Como un abrazo que no lo esperaba
         Bbadd2    Gm7 (add4)     Cm7 Fsus 
Fue el regalo de dios que del cielo bajo
        Ab/Bb         Bbadd2/ D Ebmaj7 Ebm9/Gb 
Es una vida que no imaginaba
       Bbadd2/ F Gm7 (add4)  Cm7 Fsus 
El caminar a su lado y vivir en su amor
           Cm7 
Por eso puedo cantar

Kaskivano – Aprieta Mi Mano Chords

Intro:  Sol  -  Sim  -  Mim  -  Re Sol Sim 
Si no aprietas mi mano
 Mim Re 
déjame caminar
 Sol Sim 
sino consigo hablarnos
 Mim Re 
que me cuesta estar

 Do Sol  
Es que se van mis manos
 Re Mim 
tratando de alcanzar
 Do Sol  
descascarar abrazos,
 Re Mim 
para nunca estar


 Sol Sim Mim Re 
Ah, Ah...
Ah, Ah...

 Sol Sim 
Desgarrare abrazos
 Mim Re 
que me domina actuar
 Sol Sim 
y buscaré mas trazos
 Mim Re 
de un solo rezo falsear

 Do Sol Re Mim 
es que se van mis manos
 Re Mim 
tratando de alcanzar
 Do Sol  
desgarraré mis manos
 Re Mim 
para que vivan mas

 DO 
Un desastre más
 SOL 
y esto acabará
 Re Mim 
te llevarán mis manos

Y quien te ayudará
En está soledad
Recibe amigo una mano

Y quien podrá luchar
En esta sociedad
Recibe amigo un abrazo

 DO 
Si me cuesta olvidar...
 Re Mim 
Si no aprietas mi mano...

Kaskivano – Aroma De Mi Alma Chords

SOL Si  
Otra vez voy a lavar,
 SOL Si  
mi alma que ya se enferma,
 SOL SI La  
de tanta soledad cuando lo siento cerca.

 SOL - SI   x2

 SOL Si  
De apoquito vagare,
 SOL Si  
entre medio de las piernas,
 SOL SI La  
de una planta que no riegan que se apesta.

  SOL Si  
aaahh ahhh ...

Como en una gran ciudad,
Me pongo a conocerla,
por si acaso yo camino por la acera.

que me quiere atropellar,
de este sueño de tormentas,
que no siento mis heridas nos recuerdan.

ahhh ahhh ahhhh ....

Solamente yo estare,
esperando ese regreso,
de aromatizar mi alma con tus besos.

falta plazo para dos,
lejos de otro corazon,
luces que me nubla el paso por mi cerebro.

hago caso a madurar,
pero es dificil calmar,
un gran deseo de una risa en mi pecho.

hago caso a madurar,
pero es dificil calmar,
el deseo de una risa en mi pecho.

ahhh ahhh ahhh ahh....

Otra vez voy a lavar mi alma que ya se enferma.

Mow mi dobrze (tab) – Happysad chords

Intro / 1st & 2nd Verse - Guitar 1
   a              d              C              G
|--------------|--------------|--------------|--------------|--------------|
|--------------|--------------|--------------|--------------|--------------|
|--5-----5-----|-10-----10----|--9-----9-----|--7-----7-----|--------------|
|--7-----7-----|-12-----12----|-10----10-----|--9-----9-----|--------------|
|--------------|--------------|--------------|--------------|--------------|
|--------------|--------------|--------------|--------------|------0-3-4-5-|


Riff A
Guitar 1
|--------------------|--------------------|----------------------|-------------------|
|--------------------|--------------------|----------------------|-------------------|
|--5-5--4-4--2-2-----|-5-5--4-4---2-2-----|-7-7--5-5--4--4-5-4---|-7-7-5----9-9-9-7--|
|----------------2-2-|----------------2-3-|----------------------|-------------------|
|--------------------|--------------------|----------------------|-------------------|
|--------------------|--------------------|----------------------|-------------------|


Riff A
Guitar 2
|--------------------|--------------------|--------------------|-----------------------|
|--------------------|--------------------|--------------------|-----------------------|
|--------------------|--------------------|-7-7-7-7--7-7--777--|----------5-5---5-5/7--|
|-7-7-7-7--7-7--777--|-7-7-7-7--7-7--777--|-7-7-7-7--7-7--777--|-5-5-5-5---------------|
|-7-7-7-7--7-7--777--|-7-7-7-7--7-7--777--|-5-5-5-5--5-5--555--|-5-5-5-5---------------|
|-5-5-5-5--5-5--555--|-5-5-5-5--5-5--555--|--------------------|-3-3-3-3---------------|


2nd Verse Guitar 2
|--------------------------------|-----------------------------------|--------------|
|--------------------------------|-----------------------------------|--------------|
|--------------------------------|-----------------/12-10------------|--------------|
|--/7~------/10-9-10-------------|--/7~------/10-9-----------/10--9~-|--------------|
|--------------------8~---/7-5~--|-----------------------------------|--------------|
|--------------------------------|-----------------------------------|------0-3-4-5-|

3rd Verse
   a                              d             G
|--5--------------------------|--10--------------------------|
|--5--------------------------|--10------------12------------|
|--5--------------------------|--10------------12------------|
|--7--------------------------|--12------------12------------|
|--7--------------------------|--12------------10------------|
|--5--------------------------|--10--------------------------|


Bridge
|-----------------|-------------------------|-----------------|------------------------|
|-----------------|-------------------------|-----------------|------------------------|
|-/7-5-4-5--2--2--|--/7-5-4-5--2--2/4-4/5-5-|-/9-9-7---7-7-7--|-/10-9-7--/10--9b10r9~--|
|-----------------|-------------------------|-----------------|------------------------|
|-----------------|-------------------------|-----------------|------------------------|
|-----------------|-------------------------|-----------------|------------------------|


|---------------------------------|---------------------------------|
|---------8--6--5b(6)r(5)~--------|---------8--6--5-----------------|
|----5----------------------------|----5------------5~---5-5/7/9~---|
|--7---7--------------------------|--7---7--------------------------|
|---------------------------------|---------------------------------|
|---------------------------------|---------------------------------|


|----------------------------------|--------------------------------------|
|-----------13--11--10b(11)r(10)~--|-----------13--11--10-----------------|
|-----10---------------------------|-----10---------------10~---10-10/9~--|
|--12----12------------------------|--12----12--------------------------

Tak mi samotnosc – KAT chords

Znam cie...
1|-----------------|
2|-----------------|
3|-----------------|
4|-----3-----------|
5|-----2-----2-2-2-|
6|-0-0-------0-0-0-|
P.M. .


Otworz sie...
1|-----------------------------|
2|-----------------------------|
3|-----------------------------|
4|-------------------------6-5-|
5|-4-------4-------4-------4-3-|
6|-2---2-2-2---2-2-2---2-2-----|
P.M    . .     . .     . .
1|-----------------------------|
2|-----------------------------|
3|-----------------------------|
4|-----------------------------|
5|-4-------4---5---4-3-3-------|
6|-----3-2---------2-1-1-------|
P.M    . .


Otworz sie...
1|-------------------------|
2|-------------------------|
3|-------------------------|
4|-------------------------|
5|-2---1-------5-4---------|
6|---------0-0-----1-1-4-3-|
P.M        . .     . .

Mow mi dobrze(tab) – Happysad chords

Happysad- mow mi dobrze

PRZEJsCIA:

E------------------------------|-----------------------------|
H------------------------------|-----------------------------|
G--5-5--4-4--2-2---------------|-5-5--4-4---2-2--------------|
D--------------------2---2-2---|--------------------2--3-3---|
A------------------------------|-----------------------------|
E------------------------------|-----------------------------|

|----------------------------|------------------------|
|----------------------------|---------------5-5------|
|-7-7---5-5---4---4-5-4------|----7-7---5-5-------7---|
|----------------------------|------------------------|
|----------------------------|------------------------|
|----------------------------|------------------------|

SOLO:
E-------------------------------|-------------------------|
H-------------------------------|-------------------------|
G-------------------------------|-------------------------|
D--7---9/10--9-7-10---7-7-------|--9/10--9-7-10--7-7------|
A-------------------------------|-------------------------|
E-------------------------------|-------------------------|

|-----------------------------|-----------------------------------------|
|-----------------------------|-----------------------------------------|
|--------------------9-9--7---|--7-7-7---9-9-7--9b10--9b10---9----------|
|--7-9-9-10-10----------------|-----------------------------------------|
|-----------------------------|-----------------------------------------|
|-----------------------------|-----------------------------------------|

|-----------------------------------|-----------------------------------|
|-----------------------------------|-----------------------------------|
|-------------12--10---9h10p9-------|-------------12--10---9h10p9-------|
|--7--9--7--------------------------|--7--9--7--------------------------|
|-----------------------------------|-----------------------------------|
|-----------------------------------|-----------------------------------|

|----------------------------------------|------------------------------------------|
|----------------13--11--10h11p10--------|-----------------13--11--10h11p10---------|
|----------------------------------------|------------------------------------------|
|-10-12-10-------------------------------|--10--12--10------------------------------|
|----------------------------------------|------------------------------------------|
|----------------------------------------|------------------------------------------|