Tag: mike

In The Beginning chords – Mike Oldfield

 
Song: In The Beginning
Artist: Mike Oldfield
 The Songs of Distant Earth
Year: 1994
Tabber: beranger80@hotmail.com



Intro (0:00)

 Bm 




Intro (0:08)

 Bm 

e---------------|
b---------------|
g---------------|
d--12-14-16-----|
a-----------14--|
e---------------|



Verse (0:31)

 Bm 
In the beginning God created the heaven and the earth.
And the earth was without form, and void.
                     D 
And darkness was upon the face of the deep.
                     A 
And the Spirit of God moved upon the face of the waters.



Verse (0:47)

 Bm 
And God said,
Let there be light
 D 
And there was light.
And God saw the light,
            A 
That it was good...



Outro (0:57)

 D G D A D G D A D G

In Dulci Jubilo solo Tabs – Mike Oldfield Vsion 3

 ---------------------------------------------------------------------------------------------------------------
                                          Artist - Mike Oldfield
                                         ************************
                                          Song - In Dulci Jubilo
                                         ************************
                                           Album - The Complete  
                                          **********************
                                            - Ayreon77
                                          **********************
---------------------------------------------------------------------------------------------------------------
Tuning = Standard

p   = Pull Off
h   = Hammer On
b   = Bend
rb  = Release Bend
rbp = Release Bend Pulloff
br  = Bend Release
brp = Bend Release Pulloff
/   = Slide
UB  = Union Bend



SOLO 1
*******
  Trill........................
     h  p  h  p  h  p  h  p  h  p                             h  h                            
e|-15-17-15-17-15-17-15-17-15-17-15-|-15-13-12-------|15-13-12-13-15-------|-12----12---p------|
B|----------------------------------|----------13----|---------------13----|----15----13-12----|
G|----------------------------------|-------------12-|------------------12-|----------------14-|
D|----------------------------------|----------------|---------------------|-------------------|
A|----------------------------------|----------------|---------------------|-------------------|
E|----------------------------------|----------------|---------------------|-------------------|

     p  p     p             p     h  h                                           p  p
e|-15-13-12-13-12-13----|-15-13-12-13-15---p--h---|------------------h--h---12-15-13-12-|
B|-------------------15-|----------------13-12-13-|---p--------h---12-13-15-------------|
G|----------------------|-------------------------|-14-12----12-14----------------------|
D|----------------------|-------------------------|-------15----------------------------|
A|----------------------|-------------------------|-------------------------------------|
E|----------------------|-------------------------|-------------------------------------|

     p                   h  h                                             p  p
e|-13-12-13----|-15-13-12-13-15-|---p------|------------------h--h---12-15-13-12-|
B|----------15-|----------------|-13-12-13-|---p--------h---12-13-15-------------|
G|-------------|----------------|----------|-14-12----12-14----------------------|
D|-------------|----------------|----------|-------15----------------------------|
A|-------------|----------------|----------|-------------------------------------|
E|-------------|----------------|----------|-------------------------------------|

     h  p                                      s               s       brp     brp             
e|-12-13-12---p--p---|----12---s-|-s---15----15\-|-s---20----20\-|-22-22--20--22--20-17-20---s-|
B|----------15-13-12-|-13----13\-|-\17----17-----|-\20----20-----|-------------------------20\-|
G|-------------------|-----------|---------------|---------------|-----------------------------|
D|-------------------|-----------|---------------|---------------|-----------------------------|
A|-------------------|-----------|---------------|---------------|-----------------------------|
E|-------------------|-----------|---------------|---------------|-----------------------------|

01:46                                                                                      p  p
e|-12----12---h--p------h--p---------|---h--h------12-------|------------------h--h---12-15-13-12-|
B|----15----13-15-13--12-13-12---h---|-12-13-15-13-------13-|---p--------h---12-13-15-------------|
G|-----------------------------14-16-|----------------12----|-14-12----12-14----------------------|
D|-----------------------------------|------------------

Mike Duces Symphony No 11 In D Minor Tabs – Lower Than Atlantis

 -------------------------------------------------------------------------------
       Mike Duce's Symphony No.11 in D minor - Lower Than Atlantis
-------------------------------------------------------------------------------
: Sam Lyons
 sam.lyons0@hotmail.com

Tuning: Drop D (DADGBe)

Intro
e|------------------------------------------------------------|
B|-12--12-----8-----5--5-----8-----12--12-----8-----8--0--5---|
G|-12--12-----9-----0--0-----9-----12--12-----9-----9--0--0---|
D|-0---0------0-----5--5-----0-----0---0------0-----0--0--5---|
A|-12--12-----8-----5--5-----8-----12--12-----8-----8--0--5---|
D|------------------------------------------------------------|

e|----------0-------------------------------------------------|
B|----0-------------------------------------------------------|
G|-------5-----5----------------------------------------------|
D|-7--------------9-------------------------------------------|
A|------------------------------------------------------------|
D|------------------------------------------------------------|

e|----------------------------------------------------------------------------------------|
B|---------12-----------------------------8--------------5--------------------------8-----|
G|-----------------12---------------9--------9-----------------5--------------9--------9--|
D|----------------------------------------------------------------------------------------|
A|-12--12------12------12-----8--8-----8-----------5--5-----5-----5-----8--8-----8--------|
D|----------------------------------------------------------------------------------------|

e|---------------------------------------------------------------------------|
B|---------12-----------------------------8--------5----------5\7-----7p0----|
G|-----------------12---------------9--------9-----0----------0\0-----0p0----|
D|-------------------------------------------------5----------5\7-----7p0----|
A|-12--12------12------12-----8--8-----8-----------5----------5\7-----7p0----|
D|---------------------------------------------------------------------------|

Verse 1

e|------------------------------------------------------------|
B|-12--12-----8-----5--5-----8-----12--12-----8-----8--0--5---|
G|-12--12-----9-----0--0-----9-----12--12-----9-----9--0--0---|
D|-0---0------0-----5--5-----0-----0---0------0-----0--0--5---|
A|-12--12-----8-----5--5-----8-----12--12-----8-----8--0--5---|
D|------------------------------------------------------------|

e|----------0-------------------------------------------------|
B|----0-------------------------------------------------------|
G|-------5-----5----------------------------------------------|
D|-7--------------9-------------------------------------------|
A|------------------------------------------------------------|
D|------------------------------------------------------------|

e|----------------------------------------------------------------------------------------|
B|---------12-----------------------------8--------------5--------------------------8-----|
G|-----------------12---------------9--------9-----------------5--------------9--------9--|
D|----------------------------------------------------------------------------------------|
A|-12--12------12------12-----8--8-----8-----------5--5-----5-----5-----8--8-----8--------|
D|----------------------------------------------------------------------------------------|

e|---------------------------------------------------------------------------|
B|---------12-----------------------------8--------5----------5\7-----7p0----|
G|-----------------12---------------9--------9-----0----------0\0-----0p0----|
D|-------------------------------------------------5----------5\7-----7p0----|
A|-12--12------12------12-----8--8-----8-----------5----------5\7-----7p0----|
D|---------------------------------------------------------------------------|

Chorus
e|-------------------------------------------------------------------

At Your Gate chords – Mike Magione And The Union

 Hello,
This tab is straight from the man himself. I messaged Mike on Facebook and he was kind 
enough to let me have the song in exchange for posting it. Listen to the song to get the 
strumming pattern. I hope you enjoy this song as much as I do!

Everything I say is relative to the capo.  So capo 2.

 Am  (come out come out)
 C F C F C F G Am Am  (And in my days)
 Am C F C F C F G Am F  (the whoas)  C Am  x2

Same verse

 F  (2nd round of whoas)  C Am F C Am Em G Am

Deliver Us chords – Mike Mcclure

 Deliver Us
Mike McClure

 C F C 
Pick up your troubles, pick up your blues
 C G C 
Take ‘em on down to the river
 C F C 
In the name of the Father and the Son
 C G C 
In the name of the one that delivers

(Chorus)

 F C        
Deliver us from the wicked one
                                 G   
Let the water wash away all our sins
 F C                  
Lift up our souls on a rock that don’t roll
                             G C    
Scatter our troubles in the four winds

 C F C  
Lay down your heartache, lay down your loss
 C G C 
Lay them down at the feet of Jesus
 C F C   
When we have feelings that we are not worthy
 C G C  
Just like the sparrow he sees us

 (Chorus x2)

Between Two Thieves chords – Mike Mcclure

 Between Two Thieves
By Mike McClure

Intro Chords:

 Am G F  twice

 
 Am G F 
On the third day He had risen
 Am G F     
Just like He said He'd do
 Am G F  
And Hell would not become His prison
 Am G F 
He broke the chains for me and you

Chorus:
               C G 
In a crown of thorns, they hung my Lord
 F C G 
They pierced his body with a soldiers sword
           Am G 
But He forgave them and that spirit
 C C/B Am F 
Brings me to my knees for the One 
           G Am G F 
That they hung between two thieves

 Am G F 

Then He went to His disciples
They put their hands in the nail scarred hand
And to those who had been doubting
They felt the power of God's plan

Chorus

Chorus

The Living Years chords – Mike And The Mechanics V3

 Artist: Mike & The Mechanics
Song: The living years
: DJ
20th Jan 2014

Tuning: Standard
CAPO: 1st fret (Sounds in key of Ab)

Chord shapes are relative to capo position:
 G      =  320033     Cmaj7  =  x32000    D7sus4  = xx0213
 Gsus2  =  3x0233     C      =  x32010    D7      = xx0212
 F#m    =  244222     Fmaj7  =  103210    G/B     = x20033
 G4     =  320013     Am7    =  x22130

*************************************************************************

    G Gsus2 G G Gsus2 G F#m 
|  /  /   /   /  |  /  /   /   /  |  /  /  /  /  |  /  /  /  /  |


    G G4 G G4 Cmaj7 C Cmaj7 C 
Every gene - ration...      blames the one be - fore,
      G G4 G G4 Cmaj7 C Cmaj7 C 
And all of their frust - rations...   come beating on your door,
   Fmaj7 
I know that I'm a prisoner to all my Father held so dear,
    Am7 
I know that I'm a hostage... to all his hopes, and fears,
       D7sus4 D7 D7sus4 D7 G G4 G G4 
I just wish I could have told him  in the living years!


     G G4 G G4 Cmaj7 C Cmaj7 C 
Crumpled bits of paper,        filled with imperfect thought,
    G G4 G G4 Cmaj7 C Cmaj7 C 
Stilted conver - sations,      I'm a - fraid that's all we've got,
    Fmaj7 
You say you just don't see it, he says it's perfect sense,
     Am7 
You just can't get agreement... in this present tense,
       D7sus4 D7 D7sus4 D7 G G4 
We all talk a different language, talking in de - fence!


 G G4 G G G4 Cmaj7 C Cmaj7 C 
                Say it loud-------,                say it clear----!
   (Say it loud-----------,    say it clear-----!)

          Am7 D7sus4 D7 G G4 
You can listen... as well... as you hear-------,


 G G4 G G G4 Cmaj7 C Cmaj7 C 
                It's too late-------,              oh, when we die----!
   (It's too late---------,    when we die------!)

         Am7 D7sus4 D7 G G4 G G4 
To ad - mit we don't  see  eye to eye---------!  |  /  /  /  /  |


         G G4 G G4 Cmaj7 C Cmaj7 C 
So we open up a quarrel...   between the present and the past,
              G G4 G G4 Cmaj7 C Cmaj7 C 
We only sacrifice the future,     it's the bitterness that lasts,
          Fmaj7 
So don't yield to the fortunes... you sometimes see as fate,
         Am7 
It may have a new perspective... on a different day,
            D7sus4 D7 D7sus4 D7 G G4 
And if you don't give up, don't give in, you may just be o

Cigarette chords – Mike Mentz

 I couldn't see any Mike Mentz tabs on UG at all so I decided I'd add what I worked out a 
few months ago

here is Mike's website: http://mikementz.com/


The first bit is E, B, A chords repeated:

|-------0---x------------------|
|-------0---x------4--\--2-----|
|-------1---x------4--\--2-----|
|----2------x------4--\--2-----|
|-----------x------2-----0-----|
|-0---------x------------------|


Then it's:

                 B 
and we'll burn down

         C#m               B   A  (B is a kind of middle chord- sliding the changes 
makes it sound cool)
all the way 'till we lose our light

               B 
and baby for now

                  A 
we're burning bright


The chorus uses the original E B A pattern


                E B A 
We want to rush

         E B A 
Right In

          E B A 
Make a beeline reeling

                                              E B A 
straight for this feeling that we're feeling


        E B A 
with no

        E B A 
regrets

            C#m B 
from the sparks in our hearts we're

   A B 
burning like a cigarette




and then the rest leads on from there

If you want me to do any corrections or to add the bridge, email me at: UGstan@greenfamily.me.uk

Another Cup Of Coffee chords – Mike And The Mechanics V3

 Kapo 2

Another cup of coffee   /       Mike and the mechanics 1995

Intro:  //:      Em D D C        ://     


         Em D C Em 
And she pours herself another cup of coffee 
         Em D C Em 
As she contemplates the stain across the wall 
     Em D C Em 
And it's in between the cleaning and the washing 
              Am G D Em 
That's when looking back's, the hardest part of all 


         Em D C Em 
And she always did her best to try and please him 
           Em D C Em 
While he always did his best to make her cry 
         Em D C Em 
And she got down on her knees to stop him leaving 
           Am G D Em 
But he always knew one day he'd say goodbye 


 C G D 
  Where are your friends, where are your children 
 C G D 
  Is this your house is this your home 
 C G D 
  Does nothing ever last forever,
 C G D              
  Does everybody sleep alone?

Intro:

        Em D C Em 
And he tear´s the business tags from his old suitcase 
        Em D C Em 
As he packs away the pieces of his life 
           Em D C Em 
They all love him but they always try to change him 
              Am G D Em 
That's what happens when a girl becomes a wife 


         Em D C Em 
And she pours herself another cup of coffee 
         Em D C Em 
As she contemplates the stain across the wall 
     Em D C Em 
And it's in between the cleaning and the washing 
              Am G D Em 
That's when looking back's, the hardest part of all


 C G D 
  Where are your friends, where are your children 
 C G D 
  Is this your house is this your home 
 C G D 
  Does nothing ever last forever,
 C G D              
  Does everybody sleep alone?

Intro:

4x
 Em D D Am C 
Don't look back, don't give up, pour yourself another cup

Get It Right chords – Backhouse Mike V2

 Backhouse Mike - Get It Right

INTRO:
 Bb 
 VERSE 1:
 Bb 
  If I could get it right
                                  Am D Gm 
  Enough to venture all and find a brighter day
                                 Bb 
  Think I might just fly away
                           Eb Bb C C7 
  To where my life could maybe take me (Take me)

 PRE-CHORUS 1:
                 Bb Dm Eb C F 
  Like the sky that was meant to shine
                Bb Dm Eb C F 
  Like the words that were meant to rhyme
                  Bb Dm Eb C F 
  And I believe it will be my time

CHORUS 1:
 Bb Dm Eb F 
 (If I) I get it right
 Bb Dm Eb F 
 (If I) I get it right
  Bb Dm Eb F 
 (If I) I get it right
   Bb Dm Eb F Bb 
 (If I could only) I get it right

 VERSE 2:
 Bb 
  You're feeling blunt
                                                       Am D Gm 
  But I can see you're pressed for time, but mine has just begun
                                 Bb 
  Think I'll grab my sword and run
                                                    Eb Bb C C7 
  To where my life could maybe take me (Take me)

 PRE-CHORUS 2:
                  Bb Dm Eb C F 
  Like the sky that was meant to shine
                Bb Dm Eb C F 
  Like the words that were meant to rhyme
                  Bb Dm Eb C F 
  And I believe it will be my time

CHORUS 2:
 Bb Dm Eb F 
 (If I) I get it right
 Bb Dm Eb F 
 (If I) I get it right
 Bb Dm Eb F 
 (If I) I get it right
 Bb Dm Eb F 
 (If I could only) I get it right
 Bb Dm Eb F Bb 
 (If I could only) I get it right

This is the whole song 100% correct check the song so you know what chord to play when.

Glitter Op Mijn Lul chords – Mike Thomas

 Intro:
 F  |  Bb/F  | 2X

Couplet:
 F                                 |                  Bb/F  |
Ik heb het hele jaar niet veel om handen
 F                                 |                   Em7   –  A/C#  |
Ik lanterfant mijn leven maar wat door
 Dm      –  Dm7               |                      G7      |
Ik luister af en toe naar een goed plaatje
     Bb                 |          Csus4  –  C    |
Ik kijk naar DVD's van 24
 F                                 |                  Bb/F  |
Ik ben niet depressief of ongelukkig
 F                                 |                   Em7   –  A/C#  |
Ik loop alleen niet warm voor flauwekul
 Dm      –  Dm7         |                      G7      |
Ik kom alleen tot leven in december
                  Bb                 |                                F/A    |
Want met kerstmis heb ik glitter op m'n lul

Refrein:
 Bb       -       F   |
Glitter op m'n lul
 Bb       -       F   |
Glitter op m'n lul
 Bb                 -             F  –  F/Bb  |         Csus4   –  C    |
Met kerstmis heb ik glitter op    m'n lul
 Bb          -             F/C    |
Het is geen prettig spul
 Bb/D          -        F/C  –  F  |
Het prikt en het is rul, maar
           Gm7   –   F/A  –  Bb  –  G/B     |   Csus4   |
Desondanks    heb ik elk jaar weer glitter....  op m'n lul

Intro:
 F  |  Bb/F  | 2X

 F                                 |                  Bb/F  |
Ik ben geen fetisjist, ik ben niet kinky
 F                                 |                   Em7   – ( A7  –  G/B  –  A / C# ) |
Ik ben ook seksueel niet gefrustreerd
 Dm      –  Dm7             |                      G7   |
Ik ben alleen discreet waar dat vereist is
     Bb                 |          Csus4  –  C    |
Mijn ouders hebben mij dat zo geleerd
 F                                 |                  Bb/F  |
Dus dat gezien van een trekker benend loopje
 F                                 |                   Em7   – ( A7  –  G/B  –  A / C# ) |
Lijk ik in elk aspect nog steeds dezelfde sul
 Dm      –  Dm7             |                      G7   |
Maar in mijn onderbroek daar is een feestje
               Bb                |                       F/A  |
Want ik heb stiekem glitter op m'n lul

Refrein:
 Bb       -       F   |
Glitter op m'n lul
 Bb       -       F   |
Glitter op m'n lul
 Bb                 -             F  –  F/Bb  |         Csus4   –  C    |
Met kerstmis heb ik glitter op    m'n lul
 Bb          -             F/C    |
Het is geen prettig spul
 Bb/D          -        F/C  –  F  |
Het prikt en het is rul, maar
           Gm7   –   F/A  –  Bb  –  G/B     |   Csus4   |
Desondanks    heb ik elk jaar weer glitter....  op m'n lul
 Bb/F            –          C/G              –       <s

What To With Laurie chords – Mike Clifford

 What To With Laurie:Mike Clifford.
#68 on BB Hot 100 on UNITED ARTISTS and
CAMEO Records in 1962.

INTRO:  F#m 

#1.
 F#m E B Ebm 
What to do with Laurie..what to do with Laurie.
 E Abm Dbm B 
When I take her out to..night, shall I hold her, oh, 
    A Dbm B Abm Ab Db 
so gently or should I hold her very tight?

#2.
 D Db F#m E Ebm B Ebm B 
Oh, whoa, what to do with Laurie..what to do with Laur..ie.
 E Abm Dbm B A 
I don't know just where to start..should I talk about 
     F#m Dbm B Abm Ab Db 
the moon or tell her what is in my heart?

BRIDGE:
 F# Db F#m B 
Should I  kiss her on the cheek or kiss her on the chin..
    E B Dbm Db 
or kiss her tiny fingertips?
         F#m B Db 
Shall I kiss her pretty nose or try to kiss her on the lips?

#3.
 F#m E B Ebm 
What to do with Laurie..what to do with Laurie.
 E Ab Dbm B A F# 
What to do and when and how..shall I wait until tomorrow
    B Ebm E 
or tell her that I love her, now?


INTERLUDE:  F#m Ebm B .. E Dbm B .. A B Ab Db ..

OUTRO:
 F#m E B Ebm 
What to do with Laurie..what to do with Laurie.
 E Ab Dbm B A F# 
What to do and when and how..shall I wait until tomorrow
    B Ebm E 
or tell her that I love her, now?


A sixties smash from Kraziekhat.

North Point Tabs by Mike Oldfield

                                           Artist - Mike Oldfield
                                         ************************
                                            Song - North Point
                                           ********************
                                             Album - Islands 
                                            *****************
                                           - Ayreon77
                                         **********************


INTRO - Dm
******

-------------------------------------------
VERES 1
********
              Am
Have you ever been to northpoint
Dm                       Am
  To spend your time and pray
Dm                     Am                Dm
  The prison walls are dark and cold and grey
                   Am
The writing on the wall at northpoint
Dm                   Am
  Speaks to a silent room
Dm                   Am                     Dm
  They shut the bars down, leave you to the gloom


-------------------------------------------
CHORUS 
*******
             Bb      C
how could we get any closer, so high is the wire
        F
and the guards won't listen
Bb           C          Dm
  they won't believe me

[------------|
[-10-10-br---|
[-------9--7-|
[------------|
[------------|
[------------|

            Bb       C
and then it all came back
                           F
somewhere far above, has a new day risen
Bb               C            Dm
  way beyond the searchlight, comes alive, comes alive


-------------------------------------------
VERSE 2
********
                 Am
Then on a bright day at northpoint
Dm                  Am
  The gate was open wide
Dm                     Am          Dm
  They chanced to look at what was inside

[----8-8----8-8----|
[-10-----10-----10-|
[------------------|
[------------------|
[------------------|
[------------------|

                     Am
There were a million stars at northpoint
Dm                    Am
  And from the silent tomb
Dm                    Am
  They took it to the heart,
                 Dm
And left for the moon


[--h---8----8----|
[-8-10---10---10-|
[----------------|
[----------------|
[----------------|
[----------------|


-------------------------------------------
CHORUS
*******

[------------|
[-10-10-br---|
[-------9--7-|
[------------|
[------------|
[------------|

01:54
[-17-18-20-22--20-22-20-------|
[-----------------------20-20-|
[-----------------------------|
[-----------------------------|
[-----------------------------|
[-----------------------------|


-------------------------------------------
02:12
SOLO
***** 
   b                                        b
[-20-20-19-17----|----------17-19-20-----|-20-20-19-17-----------|
[-------------20-|----18-20-----------17-|-------------20----h---|
[----------------|-17--------------------|-----------------17-19-|
[----------------|-----------------------|-----------------------|
[----------------|-----------------------|-----------------------|
[----------------|-----------------------|-----------------------|


[------------h------|-20-20-19-17----|----------17-19-20-----|
[---h---13-13-15----|-------------20-|----18-20-----------17-|
[-12-14-------------|----------------|-17--------------------|
[----------------12-|----------------|-----------------------|
[-------------------|----------------|-----------------------|
[-------------------|----------------|-----------------------|
                                                           hold
                                                             |
                           02:42         b                b  b  br      b 
[-20-20-19-17-------------|-17-18-20-22-24-24-20-|-20-22-22-22-22-|-20-22-|
[-------------20------h---|----------------------|----------------|-------|
[-------------------17-19-|-------------

Burning Bridges chords – Mike Curb Congregation

 Transpose -2 steps for original key (using button on the left).

Intro:  C G C Bb    -           F 
Friends all tried to warn me but I held my head up high
  G F       -          C 
All them times they told me, but I only passed them by
  C Dm 
They all tried to tell me but I guess I didn't care
    G C    - G 
I turned my back and left them standing there

  C Dm 
All the burning bridges that have fallen after me
  G C 
All the lonely feelings and the burning memories
 F C 
Everyone I left behind each time I closed a door
  G C    -  G# 
Burning bridges lost forever more

  C# B    -       F# 
Joey tried to help me find a job awhile ago
  G# F#      -       C# 
When I finally got it, I didn't want to go
  C# D#m 
What is there in keep for me when I just walk away?
  G# C#    - G# 
Now there's nothing left for me to say,

  C# D#m 
All the burning bridges that have fallen after me.
  G# C# 
All the lonely feelings and the burning memories
 F# C# 
Everyone I left behind each time I closed a door
  G# C#    -  A 
Burning bridges lost forever more

   D C    -            G 
Years have passed and I keep thinking what a fool I've been
  A G          -        D 
When I look back into the past and think of way back when
 D Em 
I know that I lost everything I thought that I could win
    A D    - A 
I guess I should have listened to my friends.

  D Em 
All the burning bridges that have fallen after me.
  A D 
All the lonely feelings and the burning memories
 G D 
Everyone I left behind each time I closed a door
  A D   
Burning bridges lost forever more
  A D   
Burning bridges lost forever more

Mike Lisi – I Dont Know Tabs

 e|--------------------------------------------------------------------1-----|
B|-----1---------1---------0-------1-------1--------0---------0-------3-----|
G|--C--0-----C1--0-----C2--0---C3--0---Am--2-----G--0-----Em--0----D--0-----|
D|-----2---------2---------0-------0-------2--------0---------2-------0-----|
A|-----3---------0---------2-------2-------0------------------2-------------|
E|--------------------------------------------------3-----------------------|

Capo 5


C  C2   C1   

   C
My grandma and grandpa built airplanes
C1                               C2
They had tadpoles outside in the pond
                       C
We'd talk and spin the gyroscope
     Am                        G
They taught me until they were gone
Em                        D                      C1
Curiosity is best when it gives you something to show

White blood cells chase after the red ones
C3             C
Right? I don't know.

C  C2   C1   

   C
I tried to get dirt on my hands
  C1                      C2
I took the leash off my desire
                     C
She showed mo how it feels to be alive
     Am                        G
Then showed me how it feels to be on fire
Em                        D              C1
I gave up chasing that rabbit a long time ago

But there's somebody out there for everybody
C3             C
Right? I don't know.

C  C2   C1   

  C
I know what I know and I'm grateful
      C1                C2
but I think I've yet to learn
                        C
It's not your shadow of which you are seeing
          Am                       G
It's your ghost that's waiting its turn
  Em                    D              C1
I go everywhere in life creeping on my toes

But we'll all meet again one day anyway
C3             C
Right? I don't know.

C   C2   C1

                             C
Thank God I've been going in circles
C2               C1 
Otherwise I'd be lost.
                             C
Thank God I've been going in circles
C3               C1
Otherwise I'd be lost.