Tag: mine

Lângă Mine chords – Direcția 5

 music: Marian Ionescu
lyrics: Cristi Enache/Florin Dumitrescu

I:

 G 
Îmi spui că totu-i bine,
 Bm 
că totu-i firesc
 Em 
încet m-apropii de tine;
 A 
nu știu cum ai vrea să-ți vorbesc
 G 
Aștept în camera goală
 Bm 
un semn de la tine acum,
 Em 
nu-i nimeni pe stradă
 A F#m 
încerc să-mi răspund

II:

 G 
Privesc în depărtare,
 Bm 
ascult un cântec trist
 Em 
mă-ntreb de ce oare
 A7 G 
mă-ntreb de ce nu-i doar un vis
 G 
Nu pot să-mi răspund,
 Bm 
nu pot să mai fug
 Em A 
Nu pot să ascult
                      G 
cuvinte ce mă fac să uit

CHORUS:

 G F#m G 
Aș vrea să dau timpu-napoi,
            A G 
aș vrea să fim din nou amândoi.
            F#m G 
Aș vrea să știi, aș da orice
            F#m G 
doar ca să fii iar lângă mine

III:

 G  
Aș vrea să fug în noapte,
 Bm 
aș vrea să uit de tot
 Em 
aș vrea s-aud iar șoapte
 A 
De ce nu pot?
 G 
Alerg în întuneric,
 Bm 
simt un gol în mine
 Em 
Ar fi feeric
 A                        
dac-am putea 
            Em 
să fim amândoi
             A 
să fim împreună,
 Em 
să mă pierd în sărutul tău,
    A 
în gândul tău...
              Em 
să uit de trecut
               A 
de tot ce-am avut
         Em 
să mă ridic din nou
                  A 
să încerc să fiu un alt om...

CHORUS:

 G F#m G 
Aș vrea să dau timpu-napoi,
            A G 
aș vrea să fim din nou amândoi.
            F#m G 
Aș vrea să știi, aș da orice
            F#m G 
doar ca să fii iar lângă mine
 G F#m G 
Aș vrea să dau timpu-napoi,
            A G 
aș vrea să fim din nou amândoi.
            F#m G 
Aș vrea să știi, aș da orice
            F#m G 
doar ca să fii iar lângă mine

Mess Is Mine Tabs – Vance Joy V6

 -------------------------------------------------------------------------------
                         MESS IS MINE - Vance Joy
-------------------------------------------------------------------------------
:CalvinMills
calvin@long-mills.ca

Tuning: Standard (EADGBe)

INTRO/VERSE
  Em      CXCX G                Em      CXCX G
e|------------|----------------|------------|----------------|
B|---8---\5X5X|---0-------0----|---0----1X1X|---0-------0----|
G|0----0--0X0X|0----0--0----0--|0----0--0X0X|0----0--0----0--| x2 (Intro)
D|------------|----------------|------------|----------------| x4 (Verse)
A|7-7---7\3X3X|----------------|--------3X3X|----------------|
E|------------|3-3---3-3-3---3-|0-0---0-----|3-3---3-3-3---3-|
  1 + 2 + 3 +  1 + 2 + 3 + 4 +  1 + 2 + 3 +  1 + 2 + 3 + 4 +

PRECHORUS
  G                C/G                                                                 G
e|----------------|----------------|----------------|----------------|----------------|-----------------|
B|---0-------0----|---1-------1----|---1-------1----|---1-------1----|---1-------1----|---0----0h1-3----|
G|0----0--0----0--|0----0--0----0--|0----0--0----0--|0----0--0----0--|0----0--0----0--|0----0--0-----0--|
D|----------------|----------------|----------------|----------------|----------------|-----------------|
A|----------------|----------------|----------------|----------------|----------------|-----------------|
E|3-3---3-3-3---3-|3-3---3-3-3---3-|3-3---3-3-3---3-|3-3---3-3-3---3-|3-3---3-3-3---3-|3-3---3-3-3----3-|
  1 + 2 + 3 + 4 +  1 + 2 + 3 + 4 +  1 + 2 + 3 + 4 +  1 + 2 + 3 + 4 +  1 + 2 + 3 + 4 +  1 + 2 + 3 +  4 +  
  G                C/G
e|----------------|----------------|----------------|----------------|----------------|
B|---0-------0----|---1-------1----|---1-------1----|---1-------1----|---1-------1----|
G|0----0--0----0--|0----0--0----0--|0----0--0----0--|0----0--0----0--|0----0--0----0--|
D|----------------|----------------|----------------|----------------|----------------|
A|----------------|----------------|----------------|----------------|----------------|
E|3-3---3-3-3---3-|3-3---3-3-3---3-|3-3---3-3-3---3-|3-3---3-3-3---3-|3-3---3-3-3---3-|
  1 + 2 + 3 + 4 +  1 + 2 + 3 + 4 +  1 + 2 + 3 + 4 +  1 + 2 + 3 + 4 +  1 + 2 + 3 + 4 +

CHORUS -strumming-
  Em      CXCX G                Em      CXCX G
e(0)-(0)--3X3X|3---3---3---3---|0---0---0-0-|3---3---3---3---|
B|8---8---5X5X|0---0---0---0---|0---0---1-1-|0---0---0---0---|
G|0---0---5X5X|0---0---0---0---|0---0---0-0-|0---0---0---0---| x2
D|9---9---5X5X|0---0---0---0---|2---2---2-2-|0---0---0---0---|
A|7---7---3X3X|2---2---2---2---|2---2---3-3-|2---2---2---2---|
E|0---0----X--|3---3---3---3---|0---0---3-3-|3---3---3---3---|
  1 + 2 + 3 +  1 + 2 + 3 + 4 +  1 + 2 + 3 +  1 + 2 + 3 + 4 +

BRIDGE
  Em               C                G                Dsus2/F#
e|----------------|----------------|----------------|---------0------|
B|---0-----0------|---1-----1------|---0-----0------|---3-------3----|
G|0-----0-----0---|0-----0-----0---|0-----0-----0---|2-----2------2--| x3
D|----------------|----------------|----------------|----------------|
A|----------------|3-3-3-3-3-3-3-3-|----------------|----------------|
E|0-0-0-0-0-0-0-0-|----------------|3-3-3-3-3-3-3-3-|2-2-2-2-2-2-2-2-|
  1 + 2 + 3 + 4 +  1 + 2 + 3 + 4 +  1 + 2 + 3 + 4 +  1 + 2 + 3 + 4 +

************************************

| /   slide up
| \   slide down
| h   hammer-on
| p   pull-off
| x   Mute note

************************************
VERSE 1
 Em             C     C  G
Talking like we used to do
Em             C C    G
It was always me and you
  Em             C  C   G
Shaping up and shipping out
  Em              C    C G
Check me in and check me out
    Em              C    C  G
Do you like walking in the rain?
           Em                    C   C   G
When you think of love, do you think of pain?
 Em               C   C   G
You can tell me what you see
Em                 C  C G
I will choose wh

Walk Softly On This Heart Of Mine chords – Kentucky Headhunters

 Walk Softly On This Heart Of Mine
The Kentucky Headhunters
Intro:  A  x4
 A 
You say your sorry once again dear
                E A 
You want me to take you back once more
 D A 
You say you need a helping hand dear
     D E A 
But that's what you told me once before

Chorus
 A 
Walk softly on this heart of mine love
 A E A 
Don't treat it mean and so unkind
 D A 
Let it rest in piece and quiet love
      D E A 
Walk softly on this heart of mine

Walk on
Guitar solo:  A E A D A A A 
I know some day you'll find a new love
 A 
I fell your heart has turned to stone
     D A 
But please let me down real easy
       D E A 
Cause loneliness moves in as you move on

Chorus:
 A 
Walk softly on this heart of mine love
 A E A 
Don't treat it mean and so unkind
 D A 
Let it rest in piece and quiet love
 D E A 
Walk softly on this heart of mine
 D E A 
Walk softly on this heart of mine
 D E A 
Walk softly on this heart of mine


Guitar solo to end

Heart Like Mine chords – Kimberly Caldwell

 Heart Like Mine by Kimberly Caldwell
 Without Regret
Track 2
2011


Standard Tuning
Capo on the 4th fret


Chords:

 Am :     x02210
 F :      x33211 or 133211
 C :      x32010
 G :      320003 or 320033
 Dm :     xx0231

(To play without a capo replace the chords above by C#m, A, E, B & F#m)


   Am F 
 Maybe it's the way you tried to get away with it
   C G 
 Maybe it's the way you're running from me but you can't hide
         Am F 
'Cause you and I, we know that you are not innocent
        C G 
 And there's a lot of guilty waiting for you in these eyes

  F G Dm 
 So before you tell me that I'm better off without you baby
   F G Dm 
 Let me shed some light


       Am F 
 It's not alright, you took what's mine
             C G 
 I want it back as fast as you packed up and left my life
       Am F 
 It's not ok treating me this way
              C G 
 I'd rather let you break my heart and live with your mistakes
                F Dm Am 
'Cause you'll never find another heart like mine to break

  Am F C G Am F 
 So how's it feel knowing the skies are probably coming in
    C G 
 Knowing you the way that I do you'd probably smile
   Am F 
 That part still looks worse than being over it
         C G 
 Just knowing there's a part of you that wants me to suffer inside

   F G Dm 
 So before you tell me that I'm better off without you baby
   F G Dm 
 Let me shed some light


           Am F 
 It's not alright, you took what's mine
             C G 
 I want it back as fast as you packed up and left my life
       Am F 
 It's not ok treating me this way
              C G 
 I'd rather let you break my heart and live with your mistakes
                F Dm F 
'Cause you'll never find another heart like mine to break


 F C G 
 I'm better off, I'm moving on, what you did to me was wrong
                          Dm F 
 Just in case you can't face me to say so long
                             C G 
 My middle finger's in the air to let you know that I don't care
                           Dm Am F 
 'Cause you won't find a heart like mine anywhere
           C G 
 Another heart like mine, like mine
  Am                          
 Never gonna find a heart like mine
   F 
 Never gonna find a heart like mine
   C G 
 Never gonna find a heart like mine


       Am F 
 It's not alright, you took what's mine
             C G 
 I want it back as fast as you packed up and left my life
       Am F 
 It's not ok treating me this way
              C G 
 I'd rather let you break my heart and live with your mistakes
                F Dm                  
'Cause you'll never find another heart like mine
              F Dm Am 
 No, you'll never find another heart like mine to break

Starlight Could You Be Mine chords – Don Diablo Matt Nash

 Bbm F# 
Starlight, look at us shine
 Db        
Could you be mine
 Ab 
Could you be mine
 Bbm F# 
White lies watching the skies
 Db 
Could you be mine
 Ab 
Could you be mine
 Bbm F# 
Don't go wasting your time
 Db Ab 
Don't go losing your mind
 Bbm F# 
Starlight, look at us shine
 Db 
Could you be mine
 Ab Bbm 
Could you be mine

http://www.dondiablo.com/
http://www.hausofnash.com/
http://www.youtube.com/watch?v=t6hD6r3sIOE

Frame Of Mine chords – Blake Shelton

 G D .                  C .         
There's a picture of you on my dresser
 G D .                   C 
And it's been there since you said goodbye
 G .                D .                  C 
And when I look in it's direction
                           Am .                             D 
You're starin' my heart straight in the eye

[CHORUS:]
 C .                     D .                G 
It just sits there smilin' at me
 C .                   D .       Em 
Takin' me back in time
 C .                           D 
And before I know it
 G .                     C 
I'm all caught up in
 G .               D .            G 
That old frame of mine

 G .                        D .             C 
I wish I could tear it to pieces
 G .                        D .               C 
And I've tried with all of my might
 G .                        D .                    C 
But somehow I can't find courage
              Am .                    D 
Oh, to let you out of my sight

[CHORUS:]
 C .                       D .              G 
It just sits there smilin' at me
 C .               D .          Em 
Takin' me back in time
 C .                    D 
And before I know it
 G .                     C 
I'm all caught up in
 G .                 D .          G 
That old frame of mine

 C .                      D 
Yea before I know it
 G .                       C 
I'm all caught up in
 G .                 D .          G 
That old frame of mine

Jenny Was A Frined Of Mine chords – Killers

 intro:
 Em Dsus4 C Em D C       
We took a walk that night wasn't the same
 Em D C 
We had a fight on the promenade out in the rain
 Em D C 
She said she loved me, but she had somewhere to go
 Em D C C 
She couldn't scream while i held her close i swore id never let her go
 C D Em Bm 
Tell me what you wanna know. oh,come on, oh, come on, oh, come on.
 C D 
There ain't no motive for this crime
 G5 G5/F# Em D C D 
Jenny was a friend of mine. Oh, come on, oh, come on, oh come on, whoa-oh.



 Em Dsus4 C Em Dsus4 C Em D C   
I know my rights i've been here all day and its time
 Em D C   
to let me go so let me know if its alright
 Em D C   
i just cant take this i swear i told you the truth
 Em D C C 
She couldn't scream while i held her close i swore id never let her go
 C D Em Bm 
Tell me what you wanna know oh come on oh come on oh come on
     C D  
and then you whisper in my ear 
 G5 G5/F# Em D C D 
I know what your doing here oh come on oh come on oh come on 
 C D  
There ain't no motive for this crime 
 G5 G5/F# Em D C D 
Jenny was a friend of mine. Oh, come on, oh, come on, oh, come on whoa-oh

 Em Dsus4 C Em Dsus4 C Em Dsus4 C Em

Mine chords – Petra Sihombing

 Intro :  E B C#m A E B 
Girl your heart, girl your face
                                    C#m 
Is so different from them others
                          B A 
I say, you're the only one that I’ll adore

  E B 
Cos everytime you’re by my side
                                  C#m 
My blood rushes through my veins
                          B A 
And my geeky face, blushed so silly oo yeah, oyeah
         F#m B 
And I want to make you mine

Reff :
      E B 
Oh baby I'll take you to the sky
                      A 
Forever you and I, you and I
     E B 
And we'll be together till we die
                           C#m 
Our love will last forever
     B A B 
And forever you'll be mine, you'll be mine

   E B 
Girl your smile  and your charm
                          C#m 
Lingers always on my mind
                            B 
I'll say, you're the only
                                A 
One that I've waited for
       F#m B 
and i want you to be mine

Reff :
      E B 
Oh baby I'll take you to the sky
                      A 
Forever you and I, you and I
     E B 
And we'll be together till we die
                           C#m 
Our love will last forever
     B A B 
And forever you'll be mine, you'll be mine

    F#m B 
And i want you to be mine
    F#m B 
And i want you to be mine

Reff :
      E B 
Oh baby I'll take you to the sky
                      A 
Forever you and I, you and I
     E B 
And we'll be together till we die
                           C#m 
Our love will last forever
     B A B 
And forever you'll be mine, you'll be mine

Petra - Mine Ost. Wechat

Mine End This Way intro Tabs by Five Finger Death Punch

 Medeivalman98

Standard tuning
Bass note for chord changes is in B

Chords
    Bm   Bsus2sus4     B7sus2    B5    G    A
E|---2-------0----------------------------------------------------|
B|---3-------2-----------2--------2----3----2---------------------|
G|---4-------4-----------2--------4----4----2---------------------|
D|---4-------4-----------4--------4----5----2---------------------|
A|---2-------2-----------2--------2----5----0---------------------|
E|-------------------------------------3--------------------------|
     Bm                Bsus2sus4         Bm
E|-----------2-----------------0----------------------------------|
B|-------3-------3---------2-------2-------------3----------------|
G|---------4---4---4---------4---4---4-------4-------4------------|
D|-----4-----------------4-----------------4---4---4---4----------|
A|---2-----------------2-----------------2------------------------|
E|----------------------------------------------------------------|
     B7sus             G                 A
E|----------------------------------------------------------------|
B|-----------2-----------------3-----------------2----------------|
G|-------2-------2---------4-------4---------2--------2-----------|
D|-----4---4---4---4---------5---5---5-----2---2---2----2---------|
A|---2-------------------5---------------0------------------------|
E|---------------------3------------------------------------------|
     B5
E|----------------------------------------------------------------|
B|-------2-2----2-----0-------------------------------------------|
G|----------------4---4-------------------------------------------|
D|-----4------------4---------------------------------------------|
A|---2------------------------------------------------------------|
E|----------------------------------------------------------------|

He Was A Friend Of Mine chords – Dave Van Ronk

 #-------------------------------PLEASE NOTE-------------------------------------#
# This file is the author's own work and represents their interpretation of the #
# song. You may only use this file for private study, scholarship, or research. #
#-------------------------------------------------------------------------------#
He Was A Friend Of Mine chords
Dave Van Ronk  (traditional song, earliest version as Shorty George 1939, author(s) unknown)

Capo III

 G D G 
He was a friend of mine
 D G 
He was a friend of mine
 C G D 
never had no money
                G 
To pay for his fine
 G D G 
he   was a friend of mine

 D G 
He died on the road
 D G 
He died on the road
 C G D 
never had no money
                G 
To pay for his board
 G D G 
he   was a friend of mine

 D G 
He never done no wrong
 D G 
He never done no wrong
 C G D 
He was just a poor boy
                 G 
A long way from home
 G D G 
he   was a friend of mine

 G D  2x   C G D G G D G D G 
I stole away and cried
 D G 
I stole away and cried
 C G D 
I never had no money
                     G 
And I can t be satisfied
 G D G 
he   was a friend of mine

 D G 
He was a friend of mine
 D G 
He was a friend of mine
 C G D 
When I hear his name
                                 G 
you know I just can t keep from crying
 G D G 
he   was a friend of mine

 D G  . .

Set8

Mine solo chords – Petra

 Intro :  E B C#m A E B 
Girl your heart, girl your face
                                    C#m 
Is so different from them others
                          B A 
I say, you’re the only one that I’ll adore

  E B 
Cos everytime you’re by my side
                                  C#m 
My blood rushes through my veins
                          B A 
And my geeky face, blushed so silly oo yeah, oyeah
         F#m B 
And I want to make you mine

Reff :
      E B 
Oh baby I’ll take you to the sky
                      A 
Forever you and I, you and I
     E B 
And we’ll be together till we die
                           C#m 
Our love will last forever
     B A B 
And forever you’ll be mine, you’ll be mine

   E B 
Girl your smile  and your charm
                          C#m 
Lingers always on my mind
                            B 
I’ll say, you’re the only
                                A 
One that I’ve waited for
       F#m B 
and i want you to be mine

Reff :
      E B 
Oh baby I’ll take you to the sky
                      A 
Forever you and I, you and I
     E B 
And we’ll be together till we die
                           C#m 
Our love will last forever
     B A B 
And forever you’ll be mine, you’ll be mine

    F#m B 
And i want you to be mine
    F#m B 
And i want you to be mine

Reff :
      E B 
Oh baby I’ll take you to the sky
                      A 
Forever you and I, you and I
     E B 
And we’ll be together till we die
                           C#m 
Our love will last forever
     B A B 
And forever you’ll be mine, you’ll be mine

Make You Mine chords – Benny Tipene

 Make You Mine – Benny Tipene

(Two options for this song: for Capo 1: play G in the verse, C, G, D, Em in Chorus 
and Em, C, G in Bridge) 

Or to get the high notes as Benny plays: 
Capo 8

[Verse 1]
 C 
If you were mine I'd make you smile with all my foolish ways
 C 
Like light to dark would make a start If only you'd notice me

[Chorus]
                   F C G Am 
Cause there's a thousand ways and a thousand times
             F C G Am 
That I could try to say I will make you mine
            F C G Am 
And if it's not today I'm gonna keep on trying
            F C G Am 
I'm gonna get there I'm gonna get there I'm gonna make you mine
            F C G C 
I'm gonna get there I'm gonna get there I'm gonna make you mine

[Verse 2]
 C 
We could lie on a field of grass And watch the birds fly by
 C 
If only you'd come talk to me I'd show you that it all was right

[Chorus] (he substitutes F Maj7 for F in the chorus when playing live)

[Bridge – finger picked – detailed below]
 Am FMaj7 C C 
We could live in love entranced
 Am FMaj7 C C 
If only you'd consider rhymes
 Am Fmaj7 C C/B Am Am7/G FMaj7 
Cause there's a world out there for us   to    see   and   love
           G 
You will believe

[Chorus – single strums on first two lines, substitute Fmaj7 for F and don’t play last line]

[Chorus – don’t play last line]

            F C G Am 
I'm gonna get there I'm gonna get there I'm gonna make you mine   x2

[Outro]

N.C.
I'm gonna make you mine (rpt x 8)


[Finger Picking for Bridge]

                             |1st3 times         :|
   Am FMaj7 C C  (rpt)
e|-0-----------|-0-----------|-0----------|------|
B|---------1---|---------1---|--------1---|------|
G|-----2-------|-----2-------|-----0------|------|
D|---2-------2-|---3-------3-|---2-----2--|------|
A|-0-----------|-------------|-3----------|------|
E|-------0-----|-1-----1-----|-------3----|------|

Silver Haired Daddy Of Mine chords – Norah Jones

 "Foreverly" this is the version of Norah Jones and BJ Armstrong of this 
great classic. enjoy!


 F# F# 
In a vine covered shack in the mountains
                                C#7 
Bravely fighting the battle of time
      F# B 
Is a dear one who's weathered life's sorrows
           F# C#7 F# 
It's that silvered haired daddy of mine

  F# F# 
If I could recall all the heartaches
          B F# 
Dear old daddy I caused you to bear
    C#7 F# 
If I could erase those lines from your face
     G#7 C#7 
And bring back the gold to your hair

    F# F# 
If God would but grant me the power
                           C#7 
To turn back the pages of time
     F# B 
I'd give all I own If I could but atone
         F# C#7 F# 
To that silvered haired daddy of mine

    F# F# 
I know it's too late dear old daddy
                                 C#7 
To repay for the heartaches and care
     F# B 
But dear Mother is waiting in Heaven
         F# C#7 F# 
Just to comfort and solace you there

Just Be Mine chords – Graham Coxon

 Artist: Graham Coxon
Song: Just Be Mine
 The Kiss Of Morning (2002)
: Trifonas
 trifwnas@hotmail.gr

Tuning: Standard EADGBe (Low to High)

 E E7 E E E7 E A
That's it, I gotta get out
   C E E7 E
Before we fall out again
 E E7 E A
You say, Go get a life
  C E E7 E
Put down the knife, my friend
 F E
 Just be mine
 F G# E
 Just be mine

 E E7 E A
Can  I sleep on the floor
    C E E7 E
Or even the corridor?
 E E7 E A
Don't want to be on my own
     C E E7 E
Or talk on the phone no more
 F E
 Just be mine
 F G# E
 Just be mine

Solo

 E E7 E A
You  try the patience of saints
      C E E7 E
And that is just what I ain't
     E E7 E A
So just stop wasting my time
      C E E7 E
And catch me before I faint

 F E
 Just be mine
 F G# E
 Just be mine
 F E
 Just be mine



Riffs and solo:

Riff E:(opening riff and the E in the verses)
e|-----------------|
B|-----------------|
G|---1--1-1-1--1---|
D|---2--2-2-0--2---|
A|---2--2-2-2--2---|
E|---0--0-0-0--0---|


Solo:
e|--------------------------------------|
B|--------------------------------------|
G|--4~--1~--2p1-------2p1---------------|
D|--------------4--2------4--2--4-4/6---|
A|--------------------------------------|
E|--------------------------------------|

e|--------------------------------------|
B|--------------------------------------|
G|--4~--1~--2p1-------2p1---------------|
D|--------------4--2------4--2--4-4/6---|
A|--------------------------------------|
E|--------------------------------------|

e|--------1~-0~------------------------------|
B|-----1~------------------------------------|
G|--2~------------2-/5--1~-------------------|
D|-----------------------------3--3~--3p2----|
A|-------------------------------------------|
E|-------------------------------------------|

Closing Riff:

e|--------------------------------|
B|--------------------------------|
G|--7h9-9-9-7h9-9-9--1-1-1--------|
D|--7h9-9-9-7h9-9-9--2-0-2--------|
A|--5h7-7-7-5h7-7-7--2-2-2--------|
E|--0---0-0-0---0-0--0-0-0--------|

   E7
E|-0-|
B|-0-|
G|-1-|
D|-0-|
A|-2-|
E|-0-|


Legend:

/   slide up
H   hammer-on
p   pull-off
~   vibrato

Losing Mine chords – Swearing At Motorists

 F#5    244000
 G#5    466000
 C#5    046600

Just arpeggio through the chords

 e|--------------------------------|
 B|--------------------------------|
 G|---------------------6---6------|
 D|-----4-------6-----6--6-6-------|
 A|---4--4----6--6--4-----4--------|
 E|-2-------4----------------------|




   F#5 G#5 C#5 
 Hope it doesn't take you long to make up your mind

 Because it seems I'm losing mine
   F#5 G#5 C#5 
 Swore I would not let myself be this way again

 Make myself the liar everytime



 Didn't realize I that was so affected
 But now I don't know what to do
 And I am hoping that you're feeling the same way
 Because all I want for Christmas is you
 Yeah, all I want for Christmas is you



 Didn't realize that I was so affected
 Now I don't know what to do
 And I am hoping that you're feeling the same way
 'Cause all I want for Christmas is you
 Yeah, all I want for Christmas is you
 Yeah, all I want for Christmas is you 

No Friend Of Mine Tabs by Bleached

 Bleached - No Friend Of Mine
From their Francis 7" (Ooga Booga 2011).

 Isaac Murguia, November 8, 2013.
Originally uploaded to Ultimate-Guitar.com
YouTube: Goadiroth

I'm tabbing only JESSICA's part.
Jennifer's part is all power chords of the chords used here. :)

INTRO:
e|------------|---00-000--0-00-000--0-00-0000-|      |------------|
B|-1----------|---11-111--0-00-000--2-22-2222-|      |-1----------|
G|---2-0------|---00-000--0-00-000--2-22-2222-|      |---2-0------|
D|--------2-0-|---22-222--2-22-222--2-22-2222-|      |--------2-0-|
A|------------|-3-33-333--2-22-222--0-00-0000-|      |------------|
E|------------|-----------0-00-000------------| [x3] |------------|

VERSE:
e|-3-33-333--0-00-000--|
B|-3-33-333--0-00-000--|
G|-4-44-444--0-00-000--|
D|-5-55-555--2-22-222--|
A|-5-55-555--2-22-222--|
E|-3-33-333--0-00-000--| [x8]

CHORUS:
e|-0-00-000--0-00-000--0-00-0000-|------------|
B|-1-11-111--0-00-000--2-22-2222-|-1----------|
G|-0-00-000--0-00-000--2-22-2222-|---2-0------|
D|-2-22-222--2-22-222--2-22-2222-|--------2-0-|
A|-3-33-333--2-22-222--0-00-0000-|------------|
E|-----------0-00-000------------|------------| [x2]

Repeat VERSE [x8]

BRIDGE:
e|-2---0---3-333333-3-333333-|      |-0-000000-0-000000-|
B|-3---2---3-333333-3-333333-|      |-0-000000-0-000000-|
G|-2---2---0-000000-0-000000-|      |-0-000000-0-000000-|
D|-0---2---0-000000-0-000000-|      |-2-222222-2-222222-|
A|-----0---2-222222-2-222222-|      |-2-222222-2-222222-|
E|---------3-333333-3-333333-| [x2] |-0-000000-0-000000-|

Repeat CHORUS [x2]

GUITAR SOLO:
          [x2]
e|----------------------|-----------------------|----------------------|
B|----------------------|-----------------------|----------------------|
G|-4-2-0----------------|-4-2-0--------2b-2b-2b-|-4-2-0----------------|
D|-------2-0----2-222---|-------2-0-------------|-------2-0----2-222---|
A|------------2-------2-|------------2----------|------------2-------2-|
E|----------------------|-----------------------|----------------------|

                                                        [x2]
e|----------------5-5-|--------------------5-5-|-3-33-333--0-00-000-|
B|-------------8\-5-5-|----------------8-\-5-5-|-3-33-333--0-00-000-|
G|-4-2-0---0---9\-----|-4-2-0---0--7/9---------|-4-44-444--0-00-000-|
D|-------2------------|-------2----------------|-5-55-555--2-22-222-|
A|--------------------|------------------------|-5-55-555--2-22-222-|
E|--------------------|------------------------|-3-33-333--0-00-000-|

Repeat CHORUS [x2]
Repeat VERSE [x12]

END CHORD:
e|---3-------|
B|---3-------|
G|---4-------|
D|---5-------|
A|---5-------|
E|---3-------|

End. Please rate! :)