Tag: mule

One Way Mule Tabs – Silverchair V4

 -------------------------------------------------------------------------------
                           One Way Mule - Silverchair
-------------------------------------------------------------------------------
: Jake Morash
 jakemorash314@verizon.net

Tuning: Drop B (B A D G B e)

  Intro + Verse:
e|----------------------------------------------------------------------------------------------------------|
B|----------------------------------------------------------------------------------------------------------|
G|----------------------------------------------------------------------------------------------------------|
D|-4-4-4-4-4-4--4-4-4-4----------------------------------4-4-4-4-4-4--4-4-4-4-------------------------------|
A|-2-2-3-2-2-3--2-3-2-2-3-3-3-3-12-12-12-10-12-12-12-10--2-2-3-2-2-3--2-3-2-2-3-3-3-3-12-12-12-10-10-9-9----|
B|-0-0-3-0-0-3--0-3-0-0-1-1-1-1-10-10-10-8--10-10-10-8---0-0-3-0-0-3--0-3-0-0-1-1-1-1-10-10-10-8--8--7-7----|

  Pre: Chorus: 
e|------------------------------------|
B|------------------------------------|    x1
G|-----5-------0-------5--------------|
D|---5---5---2---2---5---5------------|
A|-3-------2-------3-------3/5--------|
B|------------------------------------|
  I'll climb, right, back to you!

  Chorus 1:
e|---------0------------------------------------------------------------0------------------------------------
B|----------------------------------------1--------------------------------------------------------------
G|-----4-----4---4-----7-------0-------0---------------5--4/5/6------4-----4---4-----7------0-------5------
D|---4---4-----4-----7---7---2---2---3---3---3---3---5----4/5/6----4---4-----4-----7---7--2---2---5---5----
A|-2---------------5-------2-------3-----------3---3------2/3/4--2---------------5-------2------3----------
B|---------------------------------------------------------------------------------------------------------

e|---------------------------|
B|---------------------------|   x1
G|-----7-------0-------------|
D|---7---7---2---2-----------|
A|-5-------2-------3/5-------|
B|---------------------------|

  Interlude after first chorus:
e|-------------------------------------|
B|-----0-------0-------0---------------|
G|-------4-------7--------0------------|
D|---4-------7-------2-----------------|
A|-2-------5-------2--------3/5--------|
B|-------------------------------------|

  Chorus 2:
e|---------0------------------------------------------------------------0------------------------------------
B|----------------------------------------1--------------------------------------------------------------
G|-----4-----4---4-----7-------0-------0---------------5--4/5/6------4-----4---4-----7-------0-------5-----
D|---4---4-----4-----7---7---2---2---3---3---3---3---5----4/5/6----4---4-----4-----7---7---2---2---5---5---
A|-2---------------5-------2-------3-----------3---3------2/3/4--2---------------5-------2-------3---------
B|---------------------------------------------------------------------------------------------------------

e|----------------------------------------------------------0-------------------------------0--------------
B|-----------------------------0---------------------------------------------------------------------------
G|-----7-------0-----------4-----4---4-----7------------4-----4---4-----7-------0-------4-----4---4--------
D|---7---7---2---2-------4---4-----4-----7---7--------4---4-----4-----7---7---2---2---4---4-----4----------
A|-5-------2-----------2---------------5-------2h3b-2---------------5-------2-------2----------------------
B|-----------------1/3-------------------------------------------------------------------------------------

e|---------------------------------------------------------------------------|
B|---------------------------------------------------------------------------|
G|-----7-------0----4/5/6-----------------------------------------------------------|
D|---7---7---2---2--4/5/6----

Mississippi Breaks Tabs by Mule

 -------------------------------------------------------------------------------
                             Mississippi Breaks - Mule
-------------------------------------------------------------------------------
:C-Bone
cwarner3000



Tuning:Standard EADGBe

CHORDS
Cadd9  x32033
G      320033
D      xx0232
Em     022000
F      133211
C      x32010
A      577xxx

Here are the main parts 

0:12 Cadd9      G            D
e|----3-3----3--3-3-------3--2-------2-2-----2-2------2-2----------|
B|----3-3----3--3-3-------3--3---3---3-3-3---3-3--3---3-3----------|
G|--0-0-0----0--0-0-------0--2-2-0h2-2-2-0h2-2-2--0h2-2-2----------|
D|--2-----0h2---0-0-0-0-0----0-0-0-------0--------0----------------|
A|--3---------------2-0h2------------------------------------------|
E|------------------3-3--------------------------------------------|
    PM--                     PM-

0:23 Em          F           C             D 
e|-----------------------------------------2-2-2-2---2-2-----------|
B|-----------------------1-1-1-x-x-1---1-1-3-3-3-3---3-3-----------|
G|--------0-0-0--2-2-0h2-2-2-0-x-x-0---0-0-2-2-2-0h2-2-2-----------|
D|----2-2-2-2-2--3-3-3---3-3-2-x-x-0h2-2-2-0---------0-0-----------|
A|----2-2-2-2-2--3-3-3-------3-----3---3-3-------------------------|
E|----0-0-0--------------------------------------------------------|
     PM--        PM--

     Em          F            D
e|----------------------------2---2---2-2-2---2----2-2---2----------|
B|---------------1-1-1-1---1--3-3-3---3-3-3---3----3-3---3----------|
G|--------0-0-0--2-2-2-0h2-2--2-2-0h2-2-2-0h2-0h2--2-0h2-0h2--------|
D|----2-2-2-2-2--3-3-3-3---3--0-0-0---0---0---0----0-0---0----------|
A|----2-2-2-2-2--3-3-3-3---3----------------------------------------|
E|----0-0-0---------------------------------------------------------|
      PM-


Bridge 1:20
    A             C             A             C
e|-----------------------------------------------------------------|
B|--------------------------x-x---------------1---1-1---1----------|
G|----------------5-5-5-5\4-x-x-----------x-x-0---0-0---0-0--------|
D|--------------------------x-x-----------x-x-0h2-2-0h2-2-0h2------|
A|--7-x-x-7\-x-x--3-3-3-3\2-x-x--7-x-x-7\-x-x-3-----3-----3--------|
E|--5-x-x-5\-x-x-----------------5-x-x-5\-x-x----------------------|

Repeatx4



Solo 1:54
    Cadd9     G       D   
e|-----------------------------------------------------------------|
B|--5/8-8-8-7-3-3-x-x-5/8-8-8-7-3-5b7r5-3--------------------------|
G|--0---0-0-0-0-0-x-x-0---0-0-0-2---------2b4r2-0h2----------------|
D|------------0-0-x-x-0---0-0-0-0----------------------------------|
A|------------2-2--------------------------------------------------|
E|------------3-3--------------------------------------------------|
    Cadd9       G                 D
e|----------------------------------0-0-0-0-------------------------|
B|--5/8-8-8-7-3-5b7-5-3-----------3-3/5-5-5-3-----------------------|
G|--0---0-0-0-----------2b4r2-0h2-2-2/4-4-4-2-2-0-2-----------------|
D|--------------------------------0---------0-------2-0-2-----------|
A|------------------------------------------------------------------|
E|------------------------------------------------------------------|


Outro 3:13
    D        C           G  D       C           G
e|------------------------------------------------------------------|
B|-----------1-1-1-1-1-0------------1-1-1-1-1-0---------------------|
G|--7-7\-x-x-0-0-0-0-0-0-0--7-7-x-x-0-0-0-0-0-0-0-------------------|
D|--7-7\-x-x-2-2---------0--7-7-x-x-2-2---------0-------------------|
A|--5-5\-x-x-3-3---------2--5-5-x-x-3-3---------2-------------------|
E|-----------------------3----------------------3-------------------|
    D        C          G  Em
e|------------------------------------------------------------------|
B|-----------1-1-1-1-1-0--------------

Obion Tabs by Mule

 -------------------------------------------------------------------------------
                             OBION - MULE
-------------------------------------------------------------------------------
:C-BONE
cwarner3000

Tuning:EADGBe

'If I Dont Six'

http://www.touchandgorecords.com/bands/band.php?id=54


Here are the main parts, he improvises throughout the song
using lots of oblique bends,hammer ons and pull offs


Intro
          F#5           E5  B5
e|----------------------------------------------------------------------|
B|--------------------------7-------------------------------------------|
G|--------------------------6b8r6-4-------------------------------------|
D|--------4--6b8r6-4---4-2----------\4-2-4---4-2-4----------------------|
A|-x-x--x-4----------6---2---------------4---4-2-4-x--------------------|
E|-x-x--x-2--------------0---------------2---2-0-2-x-0------------------|

Verse
  F#5  E5  B5          F#5
e|--------------------------------------------------------------------------|
B|---------7----------------------------------------------------------------|
G|---------6b8r6-4----------------------------------------------------------|
D|--4--2-----------\4-2-4--4---4-6b7r6-4-4----------------------------------|
A|--4--2----------------4----6-----------4----------------------------------|
E|--2--0----------------2----------------2----------------------------------|
"Girl comes from Mexico, riding on a pregnant horse"


Bridge 1:54
  F#5     E5 G#5     E5
e|---------------------------------------------------------------------|
B|---------------------------------------------------------------------|
G|---------------------------------------------------------------------|
D|-4-4-4-4-2-6-6-6-6-2-repeatx4----------------------------------------|
A|-4-4-4-4-2-6-6-6-6-2-------------------------------------------------|
E|-2-2-2-2-0-4-4-4-4-0-------------------------------------------------|

    B                            G#m       E
e|---------------------------------------------------------------------|
B|--7-------7--------------------4-------------------------------------|
G|--6b8r6-4-6-4-------4-6-4--4---3b4r3-1---1---------------------------|
D|-------------x-x-/6--------------------1-2-----2-2-------------------|
A|-----------------------------------------2-2h4-2-2-------------------|
E|-----------------------------------------0---------------------------|

    B                         G#m       E
e|-------------------7-------------------------------------------------|
B|--7----------------7--------4----------------------------------------|
G|--6b8r6-4-6-4-6-6b8-8r6-4---3b4r3-1----1-----------------------------|
D|------------------------------------1--2-----------------------------|
A|---------------------------------------2-----------------------------|
E|---------------------------------------0-----------------------------|

Then back to the Verse F#5 E5 B5 F#5 to end the song.






************************************

| /   slide up
| \   slide down
| h   hammer-on
| p   pull-off
| ~   vibrato
| +   harmonic
| x   Mute note
| b   Bend
| pb  Pre-bend
| br  Bend release
| pbr Pre-bend release
| brb Bend release bend

************************************