Tag: murdera

Murdera Tabs – Sublime With Rome V2

 Chords: Cm Bb

e|--------------------------------------------------------------------------------|
B|--------------------------------------------------------------------------------|
G|--------------------------------------------------------------------------------|
D|-10--10-10-10----------8-----10-10-10-10----------8-----10--10-10-10----------8-|
A|--------------8--8--10-------------------8--8--10--------------------8--8--10---|
E|--------------------------------------------------------------------------------|

e|--------------------------------------------------------------------------------|
B|--------------------------------------------------------------------------------|
G|--10-10-10--8-8-8--7-7-7-----------------------------------------------------7--|
D|-------------------------8-10---8--8-----8-------------------8---8--10--8--10---|
A|-------------------------------------10-----10-10-8----8-8-10-------------------|
E|--------------------------------------------------------------------------------|

e|--------------------------------------------------------------------------------|
B|--------------------------------------------------------------------------------|
G|--------------------------------------------------------------------------------|
D|----------8---------------------------------------------------------------------|
A|-8-8-8-10---10-8-10-------------------------------------------------------------|
E|--------------------------------------------------------------------------------|

: BrownSquad