Tag: name

Pre-medicated Murder chords – No Use For A Name V2

 No Use For A Name
Pre-Medicated Murder
Hard Rock Bottom
Submitted by: jeremyunderground41

Key:  B 

Tuning: Standard EADGBe

Chords used:
 G#m  -   466444
 Eb/G  -  365xxx
 F#  -    244322 
 C#/F  -  143xxx
 E  -     022100
 Em  -    022000
 B  -     x24442
 Eb  -    x68886
 C#m  -   x46654
 F#/Bb  - x143xxx


Intro: 

Violin:  G#m Eb/G F# C#/F E B Eb   


Verse 1:
 G#m Eb/G 
More times than five
           F# 
I've been right here by 
      C#/F E 
your side Still wondering
               B Eb 
where did you go?
 G#m Eb/G 
Walk down the hall 
      F# Eb/G 
in a mental menacle
       E 
Don't want to be round
 F# 
  when you take yourself out


Chorus 1:
 B 
  But I have more 
             F# 
vigour than this
             G#m 
Step to the plate
              Eb 
to swing and miss
            B F#/Bb 
And it's a complicated
 G#m F# 
life  When how you
 C#m Em 
live is how you die


Verse 2:
 G#m Eb/G 
Looks like your soul is
    F# C#/F 
connected to a wall
   E 
A photograph stands by the
 B Eb G#m Eb/G 
bed   Of better times when
    F# C#/F 
we crumbled with our spine
     E 
But lived the next day
 F# (hold)               C#m 
  and put the malice away


Chorus 2:
 B 
  And that's when I 
             F# 
noticed the drip
             G#m 
Ignored the line 
              Eb 
that didn't skip
It seemed the
 B F#/Bb G#m F# 
blue suburban sky
           C#/F 
Turned to grey 
          Em 
polluted night


Chorus 3:
 B 
  So now you sleep 
             C#m 
inside the space
          G#m 
A bed of roses
                Eb 
the thorns are placed
 B C#m 
No more sleepless 
 G#m F# C#/F 
nights  just for me
            Em B (hold)
But as for you the memory

Glorify Thy Name chords – Praise And Worship

 GLORIFY THY NAME

Intro:  C C  –  CM7 Dm G C 
FATHER, I love you, I praise you, I adore you
                         C7 F G 
Glorify thy name in all the earth
                         C F E Am  - / G 
Glorify thy name, glorify thy name
                         F G G7 C 
Glorify thy name in all the earth


*JESUS – SPIRIT

GLORIFY THY NAME

Intro:  C C  –  CM7 Dm G C 
FATHER, I love you, I praise you, I adore you
                         C7 F G 
Glorify thy name in all the earth
                         C F E Am  - / G 
Glorify thy name, glorify thy name
                         F G G7 C 
Glorify thy name in all the earth


*JESUS – SPIRIT

The Night Of The Living Living chords – No Use For A Name

 No Use For A Name
The Night Of The Living Living
Feel Good Record Of The Year
2008 Fat Wreck Chords
Submitted by: jeremyunderground41

Key:  F 

Tuning: Standard EADGBe

Chords used:
 Dm  -   xx0231
 Bb  -   x13331
 F  -    133211
 C  -    x32010
 C/E  -  032xxx
 A  -    x02220
 Am  -   x02210
 A/C#  - x476xx
 Eb  -   x68886
 Gm  -   355333
 Em  -   022000


Intro:

Spoken:  Dm - Bb - C - A - x2

Distortion:  Dm - A - Bb - C -

Fast Punk Rock Drums:
 Dm C/E F Bb F Bb C A Dm A Bb F Bb C A A   


Verse 1:
        Dm 
And so much can change 
      C 
in a second when 
 Bb 
everybody's Hiding
     F C/E 
the truth   An
  Dm 
eternal quest for some
 Am 
happiness is there
 Bb C 
anything we Won't screw?


Refrain 1:
        F 
Like a loaded gun
       C/E 
if it sits too long
  Eb 
eventually you'll
             Bb 
work Up the nerve
 Gm F Em Dm C A/C# 
To a-bandon your herd


Verse 2:
              Dm 
We got these remedies
         C 
for insecurities
      Bb 
that nobody is
           F C/E 
Listening to
         Dm 
All the mournful
cries of the less
 Am 
fortunate are so
 Bb C 
easy to Say and not to


Refrain 2:
        F 
Like a funeral march
        C/E 
in the summer sun
      Eb 
it's beautiful for
              Bb 
Something so sad
 Gm F Em 
Concentrating on
     Dm 
the things we
 C 
can't have


Chorus 1:
    Bb C 
We all live in a cage 
          Dm 
without space to use our
 A Bb 
heads I'm more scared
 F/A Gm F C A/C# --
of the living than the dead


Guitar Solo:  Dm C Bb F C/E Dm A Bb C   


Outro:
      F 
In a hospital counting 
 C/E 
every breath, are
     Eb 
you happy with no
            Bb 
One in you life? 
    Gm F Em 
As long as up to this
       Dm C 
point you were right
     Bb F/A 
But living scared is
 Gm C F (hold)
just no way to die

Check For A Pulse chords – No Use For A Name

 No Use For A Name
Check For A Pulse
Keep Them Confused
2005 Fat Wreck Chords
Submitted by: jeremyunderground41

Key:  B 

Tuning: Standard EADGBe

Chords used:
 B  -     x24442
 F#  -    244322
 G#m  -   466444
 E  -     022100
 Em  -    022000
 C#m  -   x46654
 Ebm  -   x68876
 B/Eb  -  x698xx
 F#/Bb  - x143xx


Verse 1:
 C#m F# 
Fall into 
                B E 
nowhere fading out
                  C#m F# 
Afraid of who we are
                    E F# 
get used to it somehow


Verse 2:
Like sad and 
         C#m F# 
distant memories
Time is something that 
    B E 
we never can replace
A long and fucked up
 C#m 
road but everyone's
    F# 
at home Where it's 
    E Em 
dysfunctional and safe


Chorus 1:
         B 
You can hide inside
your kingdom where the
 Ebm 
guards refuse to change
         G#m 
Without noticing the 
 B E 
doubt in people these
            B 
days faces tell the
       F#/Bb B/Eb 
story of a broken heart
 F# E F# 
Together we fall apart


Verse 3:
            C#m F# 
Is anyone alive in here?
Acceptance has become a
 B E 
common state of mind
                C#m 
We love stupidity it 
                 F# 
doesn't hurt as much
               E 
It's worse to feel
                Em 
than be out of touch


Chorus 2:
         B 
This is failure
through conforming
     Ebm 
Paranoia is trend
         G#m 
as life hangs 
          B 
in the balance of
          E 
the weak-minded
          B 
Free prescription
       F#/Bb B/Eb 
of placebo for us all
    F# E 
We only stand when
              F# F# (Hold)
it's safe to fall


Guitar Solo: C#m--F#--B--E--C#m--F#--E--F#-E-


Chorus 3:
         B 
You can hide inside
your kingdom where the
 Ebm 
guards refuse to change
         G#m 
Without noticing the 
 B E 
doubt in people these
            B 
days faces tell the
       F#/Bb B/Eb 
story of a broken heart
 F# E F# E B (Hold)
Together we fall apart

He Knows My Name solo Tabs by Tommy Walker

 -------------------------------------------------------------------------------
                             He Knows My Name - Tommy Walker
-------------------------------------------------------------------------------

Solo in the key of C according to http://www.youtube.com/watch?v=NXKWsfbizB4

e|----------------------------------------------10-12-12---10--13-12-10------|
B|-------------------------------------10-12-13--------------13---------13~--|
G|-5-7-9h10-9--5---/9-9--7p5-7~----12----------------------------------------|
D|---------------7~--------------12------------------------------------------|
A|---------------------------------------------------------------------------|
E|---------------------------------------------------------------------------|

e|--------------------------------------------12-13-12p10--------------------|
B|-13--------------------------------------13-------------13~----------------|
G|-14-12h14--------------------------(9)-------------------------------------|
D|----------10-------10-14-14-12-12-10---------------------------------------|
A|--------------10h12---15-15-10-10-10---------------------------------------|
E|---------------------------------------------------------------------------|

************************************

| /   slide up
| \   slide down
| h   hammer-on
| p   pull-off
| ~   vibrato
| +   harmonic
| x   Mute note
| b   Bend
| pb  Pre-bend
| br  Bend release
| pbr Pre-bend release
| brb Bend release bend

************************************

Friends Of The Enemy chords – No Use For A Name

 No Use For A Name
Friends Of The Enemy
Hard Rock Bottom
2002 Fat Wreck Chords
Submitted by: jeremyunderground41

Key:  C 

Tuning: Standard EADGBe

Chords used:
 C  -  x32010
 G  -  320003
 Am  - x02210
 F  -  133211
 Fm  - 133111
 Dm  - xx0231
 E  -  022100


Intro: 

Bass Solo:
 F - G - Am - C - x2

Distortion:
 F - G - Am - C - F - G - Am - E -


Verse 1:
 F G 
lost in confusion
 Am C 
  not knowing which
          F 
way to return
        G Am G 
to the person you know
 F G 
  this trepidation makes
    Am 
you  take it out on
 C G 
someone else you
                   F 
forever everybody wins
 Fm 
i don't think so


Chorus 1:
 C 
  what would the worst
             G 
thing be if you
took the wheel and
you lost control
 Am 
  no one is safe inside
      F 
your safety zone
 C 
  I don't understand but
i hear what you're saying
 G 
  the repetition of a
            Am 
lonely life  somebody
tell me why the
 Dm 
heart is waging
war against the
 Fm G 
friends of the enemy
         F G Am C F G Am E 
of your mind


Verse 2:
 F G 
not your opinion
 Am 
  sounds like you
 C F 
learn it from a show it
   G Am G 
appears you have lost
 F G 
  so sick of marching in
      Am C 
your loneliness parade
  G 
stay together underneath
   F G G (hold)
a giant tidal wave


Chorus 2:
 C 
  what would the worst
             G 
thing be if you
took the wheel and
you lost control
 Am 
  no one is safe inside
      F 
your safety zone
 C 
  I don't understand but
i hear what you're saying
 G 
  the repetition of a
            Am 
lonely life  somebody
tell me why the
 Dm 
heart is waging
war against the
 Fm G 
friends of the enemy
         F G C F Am G  x2
of your mind


Bridge:
        F 
you're imitated
 G G (hold)
ordinary life


Chorus 3:
 C 
  It's when that you can't
break free can you
 G 
  take a chance as
you let it go
 Am 
  happy without the words
        F 
you'll never know
 C 
  no way to lose when you
mimicking you're paying
 G 
  a no decision forbidden home
 Am 
  no one is safe inside
      F 
your safety zone
no one is safe inside
your safety zone
 C 
  I don't understand but
i hear what you're saying
 G 
  the repetition of
a lonely life
 Am 
  no one is safe inside
      F 
your safety zone
no one is safe inside
your safety zone
 C 
  I don't understand but
i hear what you're saying
 G 
  the repetition of
a lonely life
 Am 
  no one is safe
             F (hold)
inside your zone

Any Number Can Play chords – No Use For A Name

 No Use For A Name
Any Number Can Play
Hard Rock Bottom
2002 Fat Wreck Chords
Submitted by: jeremyunderground41

Key:  C 

Tuning: Standard EADGBe

Chords used:
 C  -     x32010
 G  -     320003
 Am  -    x02210
 F  -     133211
 Fm  -    133111
 Dm  -    xx0231
 E/G#  -  476xxx
 D/F#  -  2x023x
 C/E  -   032xxx
 G/B  -   x2x003


Intro:  G (hold)


Verse 1:
              C 
They will mislead you
             G 
plug in and bleed you
           Dm Fm 
I swear I heard the DJ say
              C 
"Swallow temptation"
             G 
believe the answer
           Dm Fm 
Is in the order you obey


Chorus 1:
           C 
I know my purpose isn't
 G F 
on a poster sign
      Am Dm 
I'm still part of the game
Fm                    C-- C--G(Hold)
  that any number can play


Verse 2:
       C 
Majority vote 
       G 
identity? No!
           Dm 
Top forty reasons
          Fm 
to spoon feed
       C 
Immunity lost full 
         G 
rice at your cost
          Dm 
Industry living
      Fm 
by disease


Chorus 2:
         C 
Imagine idolize and
 G/B F 
idealize  A  dream  A Am Dm 
nightmare couldn't change
 F 
  Any number can play


Bridge:
 Am E/G# 
   The sound remains unclear
There's little left to
 G F 
hear except contradiction
 Dm 
  Looks like somebody
          G 
made our mind
      F 
When history repeats
                   Fm 
the hit that I've heard
              C (hold)
for my whole life


Verse 3:
 C G 
  Bring back request to radio
      Dm 
Your favorite song was written
            F 
but you'll never know
     C 
A selection for us to
 G Dm Fm 
see a blind conspiracy


Chorus 3:
         C 
Another version of the
 G F 
imitated tune and
 Am Dm 
not one soul was saved
 Fm C 
  Any number can play
Any number can play
Any number can play
Any number can play
                C Dm 
Any number can play
 C/E F C Dm C/E F 
   Any number can play

Solitaire chords – No Use For A Name V2

 No Use For A Name
Solitaire
Hard Rock Bottom
2002 Fat Wreck Chords
Submitted by: jeremyunderground41

Key:  C 

Tuning: Standard EADGBe

Chords used:
 C  -    x32010
 G  -    320003
 Am  -   x02210
 F  -    133211
 Fm  -   133111
 E  -    022100
 Em  -   022000
 E/G#  - 476xxx
 G/B  -  x2x003


Intro:  E (hold)
Am--F--G--E-C-
Am--F--G--E-


Verse 1:
 C Am 
I can pretend
     F 
for you
        G 
that I mean 
    E Am 
every word said
      F 
it's true
          G 
That I'd probably
 E C 
rather be
         G/B 
like a stranger
 E/G# Am G F 
in disguise
And act as if 
 G 
nothing ever


Refrain 1:
 F G 
Died or faded away
     E/G# 
got lonelier with
 Am G F Fm 
age And time
  Fm (hold)
isn't on our side


Chorus 1:
 C G 
  I'm sorry to take
the thoughts that
           Am 
keep you awake
And make it seem
              F 
like they're overrated
 C Em 
  You certainly talk
          F 
about me more when
        G F 
I fall down
 C G 
  And when I get up
                   Am 
my time is never enough
Loved in front
        F 
behind my back hated
 E 
  I guess it has 
everything
            Am F G E C Am F G E 
to do with luck


Verse 2:
 C Am F 
I can defend the truth
       G 
but I sound like
 E Am F 
white noise to my friends
      G E C 
As I raise my glass to you
       G/B E/G# Am G F 
In a stupor we speak words
               G 
That couldn't be more honest


Refrain 2:
 F G 
Lies we lived before
     E/G# 
are fights without
   Am G F Fm 
a war I'm dead  when 
(hold)
it's in your head


Chorus 2:
 C G 
  I'm starting to think
                        Am 
that all the fluids we sink
Are cutting our chances
 F C 
of being saved I see that
     Em 
the end is all we
 F G F 
have to let us know
 C G 
  I'd like to believe in 
                       Am 
something more than a dream
For when the will to
    F 
be one has faded
 G E/G# 
  I guess the truth will
           Am 
soon be deceived
    G 
My friend that isn't
 F G (hold)  C (hold)
there My solitaire

Permanent Song Name Tabs by Letters To The Living

 Key:*-palm mute
    p-pulloff
    h-hammeron
    s-slide
    ~-let ring
    1-Guitar 1
    2-Guitar 2
    B-Both guitars

0:00-0:11
C#|-----------------------------------|
G#|-----------------------------------|
E |-----------------------------------|
B |-----------------------------------|
F#|-------8---------------------------|
B |-000-0---0-0-0-000-000-------------|B
    *** *   * * * *** ***
C#|-----------------------------------|
G#|-----------------------------------|
E |-----------------------------------|
B |-----------------------------------|
F#|-------10--------------------------|
B |-888-8----8-8-8-101010-101010------|b
    *** *    * * * * * *  * * *
C#|-----------------------------------|
G#|-----------------------------------|
E |-----------------------------------|
B |-----------------------------------|
F#|-------8---------------------------|
B |-000-0---0-0-0-000-000-------------|B
    *** *   * * * *** ***
C#|-----------------------------------|
G#|-----------------------------------|
E |-----------------------------------|
B |-----------------------------------|
F#|-------10--------------------------|
B |-888-8----8-8-8-777-777----(slide)-|B
    *** *    * * * *** ***

0:12-0:22
C#|-----------------------------------|
G#|-----------------------------------|
E |-----------------------------------|
B |-----------------------------------|
F#|-------8-------------8-------------|
B |-000-0---0-0-0-000-0---0-0-0-------|1
    *** *   * * * *** *   * * *
C#|-----------------------------------|
G#|-----------------------------------|
E |-----------------------------------|
B |-----------------------------------|
F#|-------12-------------12-----------|
B |-000-0----0-0-0-000-0----0-0-0-----|2
    *** *    * * * *** *    * * *
C#|-----------------------------------|
G#|-----------------------------------|
E |-----------------------------------|
B |-----------------------------------|
F#|-------8-------------8-------------|
B |-888-8---8-8-8-777-7---7-7-7-------|1
    *** *   * * * *** *   * * *
C#|-----------------------------------|
G#|-----------------------------------|
E |-----------------------------------|
B |-----------------------------------|
F#|-------12-------------10-----------|
B |-888-8----8-8-8-777-7----7-7-7-----|2
    *** *    * * * *** *    * * *


0:23-0:33
C#|-----------------------------------|
G#|-----------------------------------|
E |-----------------------------------|
B |-----------------------------------|
F#|----------7----7----------7----7---|
B |-00000000---00---00000000---00-----|1
    ********   **   ********   **
C#|-----------------------------------|
G#|-----------------------------------|
E |-----------------------------------|
B |-----------------------------------|
F#|----------10----10---------10----10|
B |-00000000----00----00000000----00--|2
    ********    **    ********    **
C#|-----------------------------------|
G#|-----------------------------------|
E |-----------------------------------|
B |-----------------------------------|
F#|----------7----7----------7----5---|
B |-88888888---88---77777777---77-----|1
    ********   **   ********   **
C#|-----------------------------------|
G#|-----------------------------------|
E |-----------------------------------|
B |-----------------------------------|
F#|----------10--10----------10----8--|
B |-88888888---88---77777777---77-----|2
    ********   **   ********   **


0:33-0:38
C#|-----------------------------------|
G#|-----------------------------------|
E |-----------------------------------|
B |-----3------3------3----7-5-3-5--0~|
F#|-------5------5------5-----------0~|
B |-0-0-----0-0----0-0--------------0~|B
    * *     * *    * *

0:39-1:01 (chorus x2)
C#|-----------------------------------|
G#|-----------------------------------|
E |-----------------------------------|
B |-5557775557775555-888777888

Rez Music – Name Above All Names chords

 INTRO

 B F#sus E F#sus B 

VERSE
 B F#sus 
Love is His name, joy is His name
 E F#sus B 
Peace is His name, we call on Your name, oh Lord
 B F#sus 
Rest in His name, hope in his name
 E F#sus B 
Healed in His name, we call on Your name, oh Lord

CHORUS
 B G#m7 
Jesus, name above all names, Jesus name above all names
 E F#sus B F#sus E 
Jesus, name above all names

BRIDGE
        E F#sus G#m7 F#sus 
The Mighty God       The Great I Am
     E F#sus G#m7 F#sus 
Emmanuel        God with us
 E F#sus G#m7 F#sus 
Prince of peace         The Lord of all
 E F#sus G#m7 F#sus 
Wonderful,        Counselor

BRIDGE 2
       E F#sus 
The Mighty God, The Great I AM
    G#m7 F#sus 
Emmanuel, God with us
 E F#sus 
Prince of peace, The Lord of all
 G#m7 F#sus 
Wonderful, Counselor

The Name Of The Game chords – Badfinger V2

 A A A A Bm F#m C#m 
I saw the railway master and I looked him in the eye
          D A G D 
I said, "Would you go much faster if you thought that you would die?"
           A Bm F#m C#m   
He said, "Not me, sir, I could not care, in fact I would not try
 D A 
Protest would not take me far
      G D 
It's different, me not being a star"
   B G D A 
I lock my feelings in a jar until another day


     A Bm F#m C#m 
Oh, comfort me, dear brother, won't you tell me what you know?
 D A F D 
Somewhere in this paper world is a place where I can go
     A Bm F#m C#m 
Oh, long awaiting mother, is it time to make a show?
     D A 
And take your babies to your breast
 G D 
No, we never passed the test
 B G D A 
All our sins should be confessed before we carry on


 E Bm 
Oh, don't refuse me
        G D A 
If you choose me, you follow my shame
 E Bm 
No, don't confuse me
       G D A 
For I know it's the name of the game


 A Bm F#m C#m 
Got up off my pillow and I looked up at the sun
        D A G D 
Said, "You can see quite clearly now the things that we have done
    A Bm F#m C#m 
We burned your sacred willow and our battles we have won
     D A 
But did we get so very far?
      G D 
It's different, me not being a star"
   B G D A 
I lock my feelings in a jar until we go away


 E Bm 
Oh, don't refuse me
        G D A 
If you choose me, you follow my shame
 E Bm 
No, don't confuse me
       G D A 
For I know it's the name of the game


 E Bm 
Oh, don't refuse me
        G D A 
If you choose me, you follow my shame
 E Bm 
No, don't confuse me
       G D A 
For I know it's the name of the game


 E Bm G D A E Bm G D A E Bm G D A E Bm G D A

Your Number Or Your Name chords – Knack

 Transpose +7 steps with buttons on the left for original key, (or leave like this to 
sing with baritones!). Ask if you want chord fingering help.

Intro: (  C F - G  ) x2

  C F - G C F - G 
Saw your face from a window, now I can't let it go-o
  F Bb  -   F   -      C F - G 
But I don't know your number or your name
 C F   -  G C F  -  G 
If I only could phone you, I could say what I want to
  F Bb     -     F Bb   -    F   -    G 
When I'm trying to catch your eye, you're stepping out of view

NC            C F   -    G C 
It's hard to do, it's such a shame
 F  -  G C F   -  C/E  - Dm  -  C F - G C F - G 
 I can't get through without, your number or your name

  C F  - G C F  - G 
Caught a glimpse in the subway, but you weren't going my way
  F Bb  -   F   -      C F - G 
You were lost in the rumble of the train
 C F - G C F  - G 
In the rush of the city, you were standing so calmly
  F Bb   -     F Bb   -    F   -   G 
Wish that I only had the nerve, to say hello to you

NC            C F   -    G C 
It's hard to do, it's such a shame
 F  -  G C F   -  C/E  - Dm  -  C 
 I can't get through without, your number or your name

          Bb C 
I'll be waiting 'til the end of time
            Bb D G - F/G - C/G - G 
With this burning yearning in my heart and in my mind

Solo:   C F - G C F - G C F - C/E - Dm - C F - G C F  - G C F  - G 
Saw you walking this morning, so I too started walking
  F Bb  -     F Bb     -    F   -    G 
Maybe this time will be the one, where you will see me too

NC            C F   -    G C 
It's hard to do, it's such a shame
 F  -  G C F   -  C/E  - Dm  -  C F - G 
 I can't get through without, your number or your name
              C F   -    G C 
It's hard to do, it's such a shame
 F  -  G C F   -  C/E  - Dm  -  C 
 I can't get through without, your number or your name
 F  -  G C F   -  C/E  - Dm  -  C F - C/E - Dm - C 
 I can't get through without, your number or your name

Hallowed Be Thy Name chords – Petra

 -------------------------------------------------------------------------
                   Hallowed Be Thy Name - Petra
-------------------------------------------------------------------------

 ***************************************************************
 *     "markchordz" 5 Years in the road(UG)                    *
 * Thanks for supporting my tabs here in Ultimate-guitar.com   *
 *                                                             *
 * Text Me: 09099719466 (Smart)                                *             
 * Text Me: 09099719466 (Smart)                                *
 ***************************************************************

************************************************************************** 
* Read first: Pls Rate, leave some comments and be sure that your        *
* guitar "tune" well before playing this song..                          *
*                                                                        *
*            All Rights Reserved © Copyright 2013                        *
************************************************************************** 



 C F G 
We will worship the Maker of all things


 C F Dm G 
Almighty God, to You our voices sing

  Am G F C 
Hallowed be Thy Name


  F G C 
Hallowed be Thy Name

     C 
You are the Holy One

   Am 
Father, Spirit, Son


  C Am F 
King of kings and Lord of lords

  F G 
Hallowed be


  Em Am 
Hallowed be


  Dm G C 
Hallowed be Thy Name


     E 
You are the Holy One

   Cm# 
Father, Spirit, Son

  E Cm# A 
King of kings and Lord of lords

  A B 
Hallowed be


  Gm# Cm 
Hallowed be

  Fm# B E 
Hallowed be Thy Name    

Blessed Be The Name Of The Lord chords – Misc Praise Songs

  Intro 

 G C/G D/G G G/B C Am/D G C/D 

 Chorus 1 & 2 
 G 
Blessed be the name of the Lord
Holy is the name of the Lord

 C/G D/G 
Blessed be the name of the Lord
Holy is the name of the Lord

 G G/B C    
Blessed be the name of the Lord 
Holy is the        name of the Lord

 Am7 D Dsus D Dsus D Gsus/D 
Most high

 G G/B 
Blessed be the name of the Lord
Holy is the name of the Lord

 C D/C 
Blessed be the name of the Lord
Holy is the name of the Lord

 G/B G7 C Am/E G 
Blessed be the name of the Lord most high
Holy is the        name of the Lord most high

 To Chorus 2  C/D

 Verse 
                              G C/G Bm/G G Bm/G G 
The name of the Lord is            a strong tower

                            D C/D G 
The righteous run into it and they are safe
(repeat)


God bless you..
-ajdizo-

Hallowed Be Thy Name chords – Petra V2

 C F G 
We will worship the Maker of all things
 C F Dm G 
Almighty God, to You our voices sing

  Am G F C 
Hallowed be Thy Name
  F G C 
Hallowed be Thy Name

     C 
You are the Holy One
   Am 
Father, Spirit, Son
  C Am F 
King of kings and Lord of lords
  F G 
Hallowed be
  Em Am 
Hallowed be
  Dm G C 
Hallowed be Thy Name
     E 
You are the Holy One
   Cm# 
Father, Spirit, Son
  E Cm# A 
King of kings and Lord of lords
  A B 
Hallowed be
  Gm# Cm 
Hallowed be
  Fm# B E 
Hallowed be Thy Name

My Name Is You chords – Sesame Street

 This was always one of my favorite songs on Sesame Street. If I remember correctly, it
came out sometime around '83. I wanted to teach it to my niece and nephews but couldn't
find any chords for it online, so I thought I'd remedy that. The verses all follow the 
same progression.

VERSE 1:

 C 
My hair is black and red

 F C 
My hair is yellow

 F C G 
My eyes are brown and green and blue

 C 
My name is Jack and Fred

 F C 
My name's Amanda Sue

 F C 
I'm called Kareem Abdu

 G C 
My name is you.


VERSE 2:

 C 
I live in Southern France

 F C 
I'm from a Texas ranch

 F C G 
I come from Mecca and Peru

 C 
I live across the street

 F C 
In the mountains, on the beach

 F C 
I come from everywhere

 G C 
And my name is you.


CHORUS:

 F C 
We all sing with the same voice

 G 
The same song

 C 
The same voice

 F C F 
We all sing with the same voice

        G C 
And we sing in harmony.

VERSE 3:
Sometimes I get mad and mean
Sometimes I feel happy
And when I want to cry, I do.
When I'm by myself at night,
I hold my teddy tight
Until the morning light
My name is you.

VERSE 4:
I have sisters one, two, three
In my family, there's just me
I've got one daddy, I've got two
Grandpa helps me cross the street
My cat walks on furry feet
I love my parakeet
My name is you.

CHORUS

VERSE 5:
I like to run and climb
I like to sit and read
I like to watch my TV, too
And when it's time for bed,
I like my stories read,
"Sweet dreams" and "love you" said
My name is you.

CHORUS (2x)

No Other Name chords – Robert Gay

 CHORUS:
 D/F# G A D D/F# 
No other name but the name of Jesus,
          G A Bm D/F# 
No other name but the name of the Lord;
          G A Bm A G 
No other name but the name of Je-e-e-sus
    D/A A 
Is worthy of glory, 
     D/A A 
And worthy of honor,
     D/A A7 D 
And worthy of power and all praise!
(REPEAT)

VERSE:
     D A/C# Bm D/A 
His name is ex-alted far above the earth;
     G D/F# Em A7 
His name is high above the heavens.
     D A/C# Bm D/A 
His name is ex-alted far above the earth;
      Em7 F#m7 G A D/F# 
Give glory and honor and praise unto His name!

(REPEAT CHORUS ONCE)

In The Name Of God Tabs by Sabaton

 Second Sabaton tab. Fairy sure this one has little to no mistakes. Once again any
corrections, leave in the comments. Enjoy.

INTRO/MAIN RIFF
E|---------||---------------------------------------------------------|
B|---------||---------------------------------------------------------|
G|---------||---------------------------------------------------------|
D|-777-666-||----------4---------------------------4----------777-999-|
A|-555-444-||-----4-------4---4-----7---2-----4-------4---4---555-777-|
E|---------||-2-22-2222-22-222-22-555-000-2-22-2222-22-222-22---------|
 PM           . .. .... .. ... .. ..  ..  . .. .... .. ... ..

E|---------------------------------------------------------|
B|---------------------------------------------------------|
G|---------------------------------------------------------|
D|----------4---------------------------4----------777-666-|
A|-----4-------4---4---777-222-----4-------4---4---555-444-|
E|-2-22-2222-22-222-22-555-000-2-22-2222-22-222-22---------|
 PM. .. .... .. ... ..         . .. .... .. ... ..

VERSE
E|---------------------------------------------------------------------|
B|---------------------------------------------------------------------|
G|---------------------------------------------------------------------|
D|-------------------------------------------------------4~------------|
A|------4------5---2------4------2---5------4----555-222-2~--5~--------|   \
E|-2-22-2-22-333-000-2-22-2-22-000-333-2-22-2-22-333-000-----3~-|   ---|
 PM. ..   .. ..  ..  . ..   .. ..  ..  . ..   ..                     |
                                                                     | x2
E|-----------------------------------------------------------------|---|
B|-----------------------------------------------------------------|---|
G|---------------------------------------------------------------------| /
D|-------------------------------------------------------5~------------|
A|------4------5---2------4------2---5------4------5---2-3~--55-55-----|
E|-2-22-2-22-333-000-2-22-2-22-000-333-2-22-2-22-333-000-----33-33-----|
 PM. ..   .. ..  ..  . ..   .. ..  ..  . ..   .. ..  ..

PRE CHORUS
E|-------------------------|
B|-------------------------|
G|-------------------------|
D|-4~--------6-6-6-6-9-4-6-|
A|-2~---4~---4-4-4-4-7-2-4-|
E|------2~-----------------|

CHORUS
E|-----------------------------------------------------------------------|  |------|
B|-----------------------------------------------------------------------|  |------|
G|-----------------------------------------------------------------------|  |-6~---|
D|-----------4----4--------------2~------------------4----4----2~--------|x2|-6~---|
A|-4----4----2-22-2-22-4----4----0~---2~---4----4----2-22-2-22-0~---2~---|  |-4~---|
E|-2-22-2-22-----------2-22-2-22------0~---2-22-2-22----------------0~---|  |------|
 PM  ..   ..   ..   ..   ..   ..             ..   ..   ..   ..

MAIN RIFF
E|---------------------------------------------------------|
B|---------------------------------------------------------|
G|---------------------------------------------------------|
D|----------4---------------------------4----------777-999-|
A|-----4-------4---4-----7---2-----4-------4---4---555-777-|
E|-2-22-2222-22-222-22-555-000-2-22-2222-22-222-22---------|
 PM. .. .... .. ... .. ..  ..  . .. .... .. ... ..

E|---------------------------------------------------------|
B|---------------------------------------------------------|
G|---------------------------------------------------------|
D|----------4---------------------------4----------777-666-|
A|-----4-------4---4---777-222-----4-------4---4---555-444-|
E|-2-22-2222-22-222-22-555-000-2-22-2222-22-222-22---------|
 PM. .. .... .. ... ..         . .. .... .. ... ..

VERSE
E|---------------------------------------------------------------------|
B|---------------------------------------------------------------------|
G|-----

In Circles We Speak Tabs by His Name Shall Breathe

 This is a first for me. I've never tried to translate anything by ear before, but I have
to say this came out pretty good.I only tabbed up to a certain part of the song and any
help to further this tabs will be greatly appreciated. That being said, what we have
already down is very nice to listen to as well as fun to play.

Standard Tuning: EADGBe


Intro x5

e|-------------------------------|
G|-------------------------------|
B|-----0-------0------0-------6--|
D|---4---4---4------4---4---4----|
A|-2-------2------5-------0------|
E|-------------------------------|

|--------------------------------|
|--------------------------------|
|-----2-------2-------0h2p0------|
|---0---0---0---0---4-------4-2p0|
|--------------------------------|
|-3-------3-------3--------------|


x2

|--------------------------------|
|--------------------------------|
|-----0-------0------2-------2---|
|---2---2---2------0---0---0-----|
|--------------------------------|
|-0-------0------2-------2-------|

|--------------------------------|
|--------------------------------|
|-----4-------4---------6-------6|
|---0---0---0---0-----7---7---0--|
|--------------------------------|
|-3-------3-------3/5-------5----|

x1

|--------------------------------|
|--------------------------------|
|-----0-------0------2-------2---|
|---2---2---2------0---0---0-----|
|--------------------------------|
|-0-------0------2-------2-------|

|--------------------------------|
|--------------------------------|
|-----4-------4---2--------------|
|---0---0---0---0-0--------------|
|-----------------0--------------|
|-3-------3-------0--------------|

x5

|--------------------------------|
|--------------------------------|
|-----0-------0------0-------6---|
|---4---4---4------4---4---4-----|
|-2-------2------5-------0-------|
|--------------------------------|

|--------------------------------|
|--------------------------------|
|-----2-------2-------0h2p0------|
|---0---0---0---0---4-------4-2p0|
|--------------------------------|
|-3-------3-------3--------------|

x2

|--------------------------------|
|--------------------------------|
|-----0-------0------2-------2---|
|---2---2---2------0---0---0-----|
|--------------------------------|
|-0-------0------2-------2-------|

|--------------------------------|
|--------------------------------|
|-----4-------4---------6-------6|
|---0---0---0---0-----7---7---0--|
|--------------------------------|
|-3-------3-------3/5-------5----|

x1

|--------------------------------|
|--------------------------------|
|-----0-------0------2-------2---|
|---2---2---2------0---0---0-----|
|--------------------------------|
|-0-------0------2-------2-------|

|--------------------------------|
|--------------------------------|
|-----4-------4---2--------------|
|---0---0---0---0-0--------------|
|-----------------0--------------|
|-3-------3-------0--------------|

https://www.facebook.com/hisnameshallbreathe

Your Name The Ukulele Song chords – Charlie Puth

 C G                       
This goes out to the most beautiful girl that I saw the other day
  Dm F                                           
She had me slipping and she had me falling for her right away
  C Em                              
This goes out to the one and only miss mysterious
  Bm Dm F                                             
Thought of  being next to her got me so delirious
   Am Dm                                                       
  Oohh     Yeah is she out is she out there
    Am D                                                                     
  Ohhh      Yeah is she out there

 D C Em 
Cause you’re all that I need
 F C 
In every single way
 G Am 
Girl you got me love sick and
           F C 
Your beauty is to blame
 C Em 
If you knew how I felt
 Em F C 
Could you ever feel the same
 G Am 
Never been acquainted
         F C 
I just need to know your name
              F C 
Girl I just need to know your name

 C 
Before I saw your face I never in my wildest dreams
                 G 
Thought that true love was actually real
             Dm 
Cause you shine way brighter
                             F 
Than anything I might have thought that I could feel
 C Em C 
I give it all everything I have even though it’s all so new
 Dm F 
Cause I want you in the worst of ways can you make my wish come true
 Am Em       
 Ohhh          Is she out there is she out there
 C Dm F 
Ohhh             Just tell me if you’re out there if you’re out there


 F C Em 
Cause you’re all that I need
 F C 
In every single way
 G Am 
Girl you got me love sick and
           F C 
Your beauty is to blame
 C Em 
If you knew how I felt
 Em F C 
Could you ever feel the same
 G Am 
Never been acquainted
              F C 
I just need to know your name
                      F C 
Girl I just need to know your name


 C G Dm Am 
  Hey         Hey
 Dm C 
need to know your Need to know your name
 C G Am C 
Hey hey I need to

 F C Em 
Cause you’re all that I need
 F C 
In every single way
 G Am 
Girl you got me love sick and
           F C 
Your beauty is to blame
 C Em 
If you knew how I felt
 Em F C 
Could you ever feel the same
 G Am 
Never been acquainted
         F C 
I just need to know your name
            C Em 
Cause you’re all that I need
 F C 
In every single way
 G Am 
Girl you got me love sick and
           F C 
Your beauty is to blame
 C Em 
If you knew how I felt
 Em F C 
Could you ever feel the same
 G Am