Tag: Neon

Trust chords – Neon Trees

 | Bb | F | C | Dm C |
| Bb | F | C | |



| D5 | C5 | G5 | |
You, you got your head in a scream,
And I'm, I'm trying to get your attention
| D5 | C5 | G5 | F5 |
You appear as a child put your heart on a seam,
But you're acting exactly as you do in my dreams
I said you; you are not what you seam And you're finding out that


| Bb | F | C | Dm C |
Falling down can feel strange
No one remembers your name,
You're loosing the game
That the thing about trust
It's always the same
Sad story again
You lose all your friends
That the thing about trust

You, you got your head in a swing
Ya, I, I am trying to give you salvation
You appear as a devil
Like a wolf in the woods
But your acting exactly as we excepting you would
I said you; you read the words that I sing, as a shot to the [?]

Falling down can feel strange
No one remembers your name,
You're loosing the game
That the thing about trust
It's always the same
Sad story again
You lose all your friends
That the thing about trust

| Dm | | | Bb |
Don't lie to me when the pressures on, you gotta have trust
| Dm | | C | Bb |
Don't lie to me when the pressures on, you gotta have trust
| Dm | | | Bb |
Don't lie to me when the pressures on, you gotta have trust
| Dm | | F C | Bb |
Don't lie to me when the pressures on, i said you gotta have trust

| Bb | F | C | Dm C |
Don't give up x4

| Bb | F | C | Dm C |
Falling down can feel strange
No one remembers your name,
You're losing the game
That the thing about trust
It's always the same
Sad story again
You lose all your friends
That the thing about trust 

Mr Mr chords – Girls Generation

 SNSD's come back already yoohoo~! 
Here you go, this song is ear catching. Just contact me @ tara.dianagri

*
                         Em G D C 
[Taeyeon] Let’s go! Mwol geokjeonghaneunde neon
           Em G D C 
Dwaetgo, mwoga tto duryeounde?
                     Em G D C 
[Seohyun] Jaego tto jaeda neujeobeoryeo
 Em G A C 
Oh oh ooh woh.. oh oh ooh woh

**
             Em D C 
[Sunny] Maeil haruga dareuge buranhaejyeo ga
             Em D C 
[Yoona] Apseo ga jugil barae geu nugungaga
                       Em G D Am 
[Jessica] Neon moreun cheok nuneul gamneun
         C D                  
You bad bad bad boy, you so bad (bad bad bad)

***
          Em Bm 
[All] Deo dangdanghage neon 
          Am C D 
Mr. Mr. ([Yuri] nal bwa) Mr. Mr. ([Yuri] geurae baro neo neo neo)
 Em Bm 
Nal gaseum ttwige han 
      Am C D 
Mr. Mr. ([Tiffany] choegoui namja) Mr. Mr. ([Tiffany] geuge baro neo)

                 Em Bm Am 
[Taeyeon] Sangcheoro kkaejin yurijogakdo
                                 C D 
Byeori doeneun neo Mr. Mr. Mr. Mr.
              Em Bm Am 
[Tiffany] Nareul bitnaejul [Seohyun] seontaek badeun ja!
                                           C D 
[Tiffany] Geuge baro neo Mr. Mr.

(Mr. Mr. Mr. Mr. Mr. Mr. Mr. Mr.)

*
[Jessica] Wae neon ajikdo mitji motae?
Jinjja! bimireul allyeojulge
[Tiffany] Neon wae teukbyeolhan Mr.Inji
Oh oh ooh woh.. oh oh ooh woh

**
[Sunny] Mirael yeoneun yeolsoe baro niga gajin geol
[Sooyoung] Sonyeonboda deo keun kkumeul kkeureoana
[Yuri] Bitnan nun sok nal damgoseo
My mi, mi, mister, rock this world (world world world)

***
[All] Deo dangdanghage neon Mr. Mr. ([Hyoyeon] nal bwa)
Mr. Mr. ([Hyoyeon] geurae baro neo neo neo)
Nal gaseum ttwige han Mr. Mr. ([Sunny] choegoui namja)
Mr. Mr. ([Sunny] geuge baro neo)
[Tiffany] Sangcheoro kkaejin yurijogakdo
Byeori doeneun neo Mr. Mr. Mr. Mr.
[Jessica] Nareul bitnaejul [Sunny] seontaek badeun ja!
[Jessica/Sunny] Geuge baro neo Mr. Mr.

(1. 2. 3. 4.)
(Hey.. Hey.. Hey.. Hey..)
(Mr. Mr. Mr. Mr.)
(Hey.. Hey.. Hey..)
[Tiffany] Wooh!

***
([Sooyoung] Jigeum sesang ane) [Jessica] oh, ne ape
([Sooyoung] Nuguboda meonjeo) [Jessica] neol deonjyeo
([Yoona] Deo chiyeolhage) [Taeyeon] deo chiyeolhage
([Yoona] Mr. Mr.) [Taeyeon] mister
([Yuri] Ojik geudaemani) [Tiffany] irwonael
([Hyoyeon] Dan hana) [Tiffany] naeil apui neo
([Hyoyeon] Geu ane sara gal neowa na) [Tiffany] mister~ oh~


[All] Deo dangdanghage neon Mr. Mr. ([Hyoyeon] nal bwa)
Mr. Mr. ([Jessica] geurae baro neo neo neo)
Nal gaseum ttwige han Mr. Mr. ([Hyoyeon] choegoui namja)
Mr. Mr. ([Hyoyeon] geuge baro neo)

-Overtune-
[Seohyun] Sangcheoro kkaejin yurijogakdo
Byeori doeneun neo Mr. Mr. Mr. Mr.
[Taeyeon] Nareul bitnaejul choegoui namja!
Geuge baro neo Mr. Mr.



Lyrics by: http://www.kpoplyrics.net/snsd-mr-mr-lyrics-english-romanized.html#ixzz2uhGlSygJ 
Follow us: @kpoplyrics_net on Twitter | kpoplyricsnet on Facebook

Some Kind Of Monster chords – Neon Trees

 I'm some kind of monster since I lost her

 C#m | | A | | E  | | B | |
There's a trap door hidden in my heart
I fell into a lover's hell deeper then I thought
 C#m |  A |  E |  B 
I came crawling back to that motel
 F#m | | A | |
I don't recognize who I am tonight


 E | E | G#m |  G# (m)|
I'm some kind of monster since I lost her
| C#m | F#m |
Now I'm raging wild and starting fires
| A | B |
I'll burn this whole thing down
 E | E | G#m |  G# (m)|
Some kind of monster how bad do I want her
| C#m | F#m |
I don't sleep at night I'm terrorized
| A | B |
There's blackness in my eyes
| F#m | |
I'm some kind of monster
| A | B |
I'm some kind of monster

 C#m | | A | | E  | | B | |
Everybody wanted her as a friend for fun
The time we took the nights we shook should have been enough
 C#m |  A |  E |  B 
Now her face is carved into my head
 F#m | | A | |
She's a damsel I'm in such distress


 E | E | G#m |  G# (m)|
I'm some kind of monster since I lost her
| C#m | F#m |
Now I'm raging wild and starting fires
| A | B |
I'll burn this whole thing down
 E | E | G#m |  G# (m)|
Some kind of monster how bad do I want her
| C#m | F#m |
I don't sleep at night I'm terrorized
| A | B |
There's blackness in my eyes
| F#m | |
I'm some kind of monster
| A | B |
I'm some kind of monster



| F#m | | A | |
I used to whisper in her ear
| E | | F#m | B |
Now I am screaming out in fear
| F#m | | A | |
Secrets keep me sinister but I've told her every one
| B | | A | B |
So why can't she understand the creature I've become


 C#m | | A | | E  | | B | |
There's a trap door hidden in my heart
I fell into a lover's hell deeper then I thought


 E | E | G#m |  G# (m)|
I'm some kind of monster since I lost her
| C#m | F#m |
Now I'm raging wild and starting fires
| A | B |
I'll burn this whole thing down
 E | E | G#m |  G# (m)|
Some kind of monster how bad do I want her
| C#m | F#m |
I don't sleep at night I'm terrorized
| A | B |
There's blackness in my eyes
 E | E | G#m |  G# (m)| C#m | F#m | A | B |
I'm some kind of monster
I'm some kind of monster

Sleeping With A Friend Tabs by Neon Trees

 Drop D Tuning

Intro/Chorus
e-----------------------------------------|
b-12----10--------------------------------|
g----11----11----11----11--12-12-11-11----|
d-------------12----12-----------------12-|
a-----------------------------------------|
d-----------------------------------------|

Synth
e-----------------------------------------------|
b-----------------------------------------------|
g------9~--11~--12~-----------9~----------------|
d-12~--------------------12~------11~----12~----|
a-----------------------------------------------|
d-----------------------------------------------|

Rhythm (It's the bass or something.  Can play in between guitar parts.  Bottom d0's for 
D chord are optional)
e---------------------------------------------------------------------|
b---------------------------------------------------------------------|
g----------7-7-7-7---------------------------7-7-7-7------------------|
d-5-5-5-5--7-7-7-7--7-7-7-7-7-7-7-7-5-5-5-5--7-7-7-7--7-7-7-7-9-9-9-9-|
a-5-5-5-5--5-5-5-5--7-7-7-7-7-7-7-7-5-5-5-5--5-5-5-5--7-7-7-7-9-9-9-9-|
d-5-5-5-5-(0-0-0-0)-7-7-7-7-7-7-7-7-5-5-5-5-(0-0-0-0)-7-7-7-7-9-9-9-9-|

Verse
Rhythm
e-----------------------------------------------------------------|
b-----------------------------------------------------------------|
g-----------------------------------------------------------------|
d-----------------------------------------------------------------|
a-----------------------------------------------------------------|
d-5-5-5-5-5-5-5-5-5-5-5-5-0-0-0-0-7-7-7-7-7-7-7-7-7-7-7-7-9-9-7-7-|

Guitar
e-----------------------------------------------------------------------------------|
b-------------------------------7---77------77---------77--------7---7--------------|
g-77-99-77---77-99-77---7--9-7----7----99------99-77------99-77----9---9---77-99-77-|
d-----------------------------------------------------------------------------------|
a-----------------------------------------------------------------------------------|
d-----------------------------------------------------------------------------------|

e-------------------------------------------------------------------------|
b-------------------------------7---7-------7-----77---------7------------|
g-77-99-77---77-99-77---7--9-7----7---9---7---9------99-77------9-7--9-77-|
d-------------------------------------------------------------------------|
a-------------------------------------------------------------------------|
d-------------------------------------------------------------------------|

Chorus

Verse 2
Rhythm Same
Guitar Same

Synth (Plays some stuff when guitar comes in but pretty hard to hear it.  I'll try and 
tab it later on.)
e-------------------------------|
b-----------7~------------7~----|
g---7---7-9---------7---7-------|
d-9---9-----------9---9---------|
a-------------------------------|
e-------------------------------|

Chorus

Bridge
Rhythm
e---------------------------------------------------------------|
b---------------------------------------------------------------|
g---------------------------------------------------------------|
d-2-2-2-2-2-2-2-2/5-5-5-5-5-5-5-5-7-7-7-7-7-7-7-4-4-4-4-4-4-4-4-|
a-2-2-2-2-2-2-2-2/5-5-5-5-5-5-5-5-7-7-7-7-7-7-7-4-4-4-4-4-4-4-4-|
d-2-2-2-2-2-2-2-2/5-5-5-5-5-5-5-5-7-7-7-7-7-7-7-4-4-4-4-4-4-4-4-|

e--------------------------------------------------|
b--------------------------------------------------|
g--------------------------------------------------|
d-2-2-2-2-2-2-2-2/5-5-5-5-5-5-5-5-7-7-7-7-7-7-7//--|
a-2-2-2-2-2-2-2-2/5-5-5-5-5-5-5-5-7-7-7-7-7-7-7//--|
d-2-2-2-2-2-2-2-2/5-5-5-5-5-5-5-5-7-7-7-7-7-7-7//--|

Synth Part (Very faint part at the "All my friends..." part.)
e---------------------------------|
b-----7-------7-------7---88-77---|
g---7---7---7---7---7---7-------7-| repeat
d-9-------9-------9---------------|
a---------------------------------|
d---------------

Weekend solo Tabs by Neon Trees

 -------------------------------------------------------------------------------
                             Weekend - Neon Trees
-------------------------------------------------------------------------------
: Pochama999
 kidicarus505@aol.com

Tuning: Standard

e|-------------------------------------------------------------------|
B|-------------------------------------------------------------------|
G|---7-7--9-7-9-7-6-------------------7-7--9-7-9-7-6-----------------|
D|-------------------9--9--9--9--9--------------------7--7--7--7--7--|
A|-------------------------------------------------------------------|
E|-------------------------------------------------------------------|


e|-------------------------------------------------------------------|
B|-------------------------------------------------------------------|
G|---7-7--9-7-9-7-6-------------------7-7--9-7-9-7-6-----------------|
D|-------------------9--9--9--9--9--------------------7--7--7-9---7--|
A|-------------------------------------------------------------------|
E|-------------------------------------------------------------------|

That's the best that I could make out for the riff in the verses.

, so if you have any corrections or suggestions, make sure to let me know!

Neon chords – Jonas Brothers

 G 
Stars fade
 Bm 
Hearts break
 A 
Fair trade
 A 
Is it ever even
 G 
Don't wait 
 Bm 
To stay 
 A 
Awake
 A 
When you realize
       G 
That time just keeps on moving 
                Bm A 
While you're standing here still living in the dark

      G Bm 
So neon, neon
               
Burn up the sky
 A 
Just like a fantasy where all I can see is
   G Bm 
Neon, neon
                
Show me your light
 A 
I'm running out of time
 A 
So give me a sign
   G Bm A 
Neon, neon, neon
 A G Bm A 
Give me a sign, neon, neon, neon
 A             
Give me a sign, neon

 G 
Sun set
 Bm 
Street red
 A 
Lights they
 A 
Always call my name
 G 
And I'll
 Bm 
Go one
 A 
More time
 A 
Won't kill me


             G 
'Cause the time just keeps on moving
             Bm A 
While I'm standing here still living in the dark

      G Bm 
So neon, neon
               
Burn up the sky
 A 
Just like a fantasy where all I can see is
   G Bm 
Neon, neon
                
Show me your light
 A 
I'm running out of time
 A 
So give me a sign
   G Bm A 
Neon, neon, neon
 A G Bm A 
Give me a sign, neon, neon, neon
 A            
Give me a sign, neon

 G Bm A A D G                 
I've been looking for the reason
            Bm A 
What's the answer or the meaning of it all?
 A D 
All
         G 
Hope tonight you're gonna show me
          Bm A 
Just surround me 'til I'm glowing in the dark
         D G Bm 
Yeah Oh neon, neon
             
Burn up the sky 
 A     
Just like a fantasy where all I can see is
   G Bm 
Neon, neon
                
Show me your light
 A 
I'm running out of time
 A 
So give me a sign 
   G Bm A 
Neon, neon, neon
                   G Bm A 
Give me a sign, neon, neon, neon
    
I'm running out of time
     A 
So give me a sign neon

Neon Jesus Tabs by Dead And Divine

 I adjusted a few parts from matt miller's already existing tab which i felt wasn't complete.

Drop C
CGCFAD

b = bend
^ = soft mute (harmonic?)

Dead and divine
The machines we are
Neon Jesus
2009

0:00-0:02
|--------------|
|--------------|
|-----7777-----|
|-----7777-----|
|-----5555-----|
|--------------|


0:03-0:21
|------------------------------------------------------|
|------------------------------------------------------|
|--------------------------------------------------3---|
|----------------------------------------66666-----1---|
|----------------6666666-----------------66666-----1---|
|-6p3p0--3h5p0-6-6666666--6p3p0--3h5p0-6-66666--00-1---|
                                                ..
|------------------------------------------------------|
|------------------------------------------------------|
|--------------------------------------------------3---|
|----------------------------------------66666-----1---|
|----------------6666666-----------------66666-----1---|
|-6p3p0--3h5p0-6-6666666--6p3p0--3h5p0-6-66666--00-1---|
                                                ..
|------------------------------------------------------|
|------------------------------------------------------|
|--------------------------------------------------3---|
|----------------------------------------66666-----1---|
|----------------6666666-----------------66666-----1---|
|-1h3p0--3h5p0-6-6666666--1h3p0--3h5p0-6-66666--00-1---|
                                                ..
|------------------------------------------------------|
|------------------------------------------------------|
|--------------------------------------------------3---|
|----------------------------------------66666-----1---|
|----------------6666666-----------------66666-----1---|
|-1h3p0--3h5p0-6-6666666--6p3p0--3h5p0-6-66666--00-1---|
                                                ..

0:22-0:31
|--------------------------------------------|
|--------------------------------------------|
|--------------------------------------------|
|--------------------------------------------|
|-0~---------------------------------0-0-----|
|-0~--12-12-12-12-12-12-12-12-12-12--0-0-----|

-----------------------------------------|
-----------------------------------------|
-----------------------------------------|
-----------------------------------------|
-----------------------------------------|
--12-12-12-12-12-12---3-3-3-3--6-6-6-6---|

|--------------------------------------------|
|--------------------------------------------|
|--------------------------------------------|
|--------------------------------------------|
|-0~---------------------------------0-0-----|
|-0~--12-12-12-12-12-12-12-12-12-12--0-0-----|

-----------------------------------------|
-----------------------------------------|
-----------------------------------------|
-----------------------------------------|
-----------------------------------------|
--12-12-12-12-12-12---3-3-3-3--6-6-6-6---|


0:32-0:40
|------------------------------------------------------|
|------------------------------------------------------|
|--------------------------------------------------3---|
|----------------------------------------66666-----1---|
|----------------6666666-----------------66666-----1---|
|-6p3p0--3h5p0-6-6666666--1p3p0--3h5p0-6-66666--00-1---|
                                                ..
|--------------------------------------------------|
|--------------------------------------------------|
|--------------------------------------------------|
|-----------------------------------------6-6-66---|
|----------------6666666------------------6-6-66---|
|-6p3p0--3h5p0-6-6666666--1p3p0--3h5p0-00-6-6-66---|


0:41-0:51
|-----------------------------------------|
|--b---------b---------b---------b--------|
|--7---------7---------7---------7--------|
|--7---------7---------7---------7-

Poisoned With Love chords – Neon Hitch

 Poisoned With Love: Neon Hitch

Capo 4 if you want to play along with the song.  I tend to take it down to Capo 2 
because it fits my vocal range better.

Verse:  Em ,  B7 ,  C ,  Am 
Chorus:  G ,  D ,  Am ,  C Em B7 
This is not fair, I am beyond repair
        C 
Coz of you
              Am 
You-u-u-you, you-u-u
  Em B7 
Can't find my head, so I've fallen instead
      C 
Over you
             Am 
You-u-u-you, you-u-u

  Em B7 
Blood on my sleeve,I give more than you need
       C 
Yes I do
            Am 
Do-o-I do, do-o-o
  Em B7 
Frightened you'll creep, so I cry in my sleep
           Am 
Yes I do, do-o-I do

      G D Am C  
Oh! I-I-I-I-I'm poisoned with love, love
     G D Am C 
But I-I-I-I-I can't get enough, enough
    Em D Am     
So I keep wal-king on broken glass
      C 
For youuuuuuu
  Em D Am 
I'll keep wal-king on broken glass
      C 
For youuuuuuu


  Em B7 
This is not fair, but I've lost every care
         C 
I want you
               Am 
You-u-u-you, you-u-u
  Em B7 
I wear these tears and pretend they're not there
           C 
Just for you
         Am 
You-u-u-You
   Em B7 
Hurtin' myself, you say that I need help
       C 
And I do
         Am 
Do-o-o-do, do-o-o
 Em B7    
Under your spell, if you look you can tell
        C 
I love you
        Am 
You-o-I do

    G D Am C  
Oh! I-I-I-I-I'm poisoned with love, love
     G D Am C 
But I-I-I-I-I can't get enough, enough
    Em D Am     
So I keep wal-king on broken glass
      C 
For youuuuuuu
  Em D Am 
I'll keep wal-king on broken glass
      C Em ,  D ,  Am 
For youuuuuuu
      C Em ,  D ,  Am 
For youuuuuuu
      C 
For youuuuuuu

    G D Am C  
Oh! I-I-I-I-I'm poisoned with love, love
     G D Am C 
But I-I-I-I-I can't get enough, enough
    Em D Am     
So I keep wal-king on broken glass
      C 
For youuuuuuu
  Em D Am 
I'll keep wal-king on broken glass
      C 
For youuuuuuu

  Em D Am 
I'll keep wal-king on broken glass
      C 
For youuuuuuu
  Em D Am 
I'll keep wal-king on broken glass
      C 
For youuuuuuu

Neon Lights chords – Demi Lovato V5

 Neon Lights- Demi Lovato

Capo 2
Chords:
 Em C G D


Intro:
                 Em C D G
Baby when they look up at the sky we'll be shooting stars just passing by
                  Em C D G
You'll be coming home with me tonight We'll be burning up like neon lights

Verse:
 Em C G D
Be still my heart cause it's freaking out, it's freaking out, right now.
 Em C G D
Shining like stars cuase we're beautiful, we're beautiful, right now.
 Em C G D
You're all I see in all these places You're all I see in all these faces.
 Em C G D
So let's pretend we're running out of time, of time.

Chorus:
                 Em C D G
Baby when they look up at the sky we'll be shooting stars just passing by
                  Em C D G
You'll be coming home with me tonight We'll be burning up like neon lights
                 Em C D G
Baby when they look up at the sky we'll be shooting stars just passing by
                  Em C D G
You'll be coming home with me tonight We'll be burning up like neon lights

Neon lights, Neon lights, Neon lights...
                Em C D G Em C D G
Like neon lights          Like neon lights.

Verse:
 Em C G D
Be still my heart cause it's freaking out, it's freaking out, right now
 Em C G D
Shining like stars cause we're beautiful, we're beautiful, right now
 Em C G D
You're all I see in all these places You're all I see in all these faces.
 Em C G D
So let's pretend we're running out of time, of time.

Chorus:
                 Em C D G
Baby when they look up at the sky we'll be shooting stars just passing by
                  Em C D G
You'll be coming home with me tonight We'll be burning up like neon lights
                 Em C D G
Baby when they look up at the sky we'll be shooting stars just passing by
                  Em C D G
You'll be coming home with me tonight We'll be burning up like neon lights

Neon lights, Neon lights, Neon lights...
                Em C D G Em C D G
Like neon lights          Like neon lights.

 Em C G D
Shining like stars cause we're beautiful, we're beautiful, right now
 Em C G D
You're all I see in all these places You're all I see in all these faces.
 Em C G D
So let's pretend we're running out of time, of time.
                Em C D G Em C D G
Like neon lights          Like neon lights.

 Em C
Be still my heart cause it's freaking out.

Neon Philharmonic – Mornin Girl chords

 Mornin' Girl:Neon Philharmonic.
#17 on BB Hot 100 on WARNER Records
in 1969.

INTRO:  D 

#1.

 D Dbm A Bm F#m 
Mornin' girl, how'd you sleep last night?
 G D Gm G D 
You're several ages older now..your eyes 
      G B D 
have started showin' how..
 E D E D 
the little girl's growin', now.

#2.
 D Dbm G F#m 
Mornin' girl, was that you last nigh
 D G D A G       
Crying on the radio..beggin' for a way to go.
 B Bm D E G F#m 
To go back where love wasn't jumbled so.

 E G F#m Bm Em A 
Oh, no, things are different now than they were 
   D 
before.
 E G F# E Bm 
You know love is more than kisses..a whole lot more.

#3.
 D Dbm A Bm F#m 
Mornin' girl, put your dreams away and read your 
        G 
box of Cheerios.
     D G 
And powder-puff that pretty nose.
 D G F# Bm 
And go out and find your man where the wild wind blows..
 Dbm G 
mornin' girl.

INTERLUDE:OUTRO:

 D A Bm G .. F#m G F#m G .. F# Bm D Dbm .. A D .. G D  (Fade.)


A sixties smash from Kraziekhat.

Scandal Chords – Ailee

 Am Em 
Ttururup ttururup rappirappa neoui love story
 B Em 
Ttururup ttururup rappirappa naega anirae
 Am Em 
Ttururup ttururup rappirappa nunmuri heulleo
      B Em 
Na hana ppajyeoya wanbyeokhan iyagi

 Em Am 
Sorieobsi peojyeobeorin geu somun
       B Em 
Naega anirae, nega saranghan saram
 Em Am 
Mitgo sipji anheun nappeun tteun somun
       B Em 
Modu waeirae sugeundaeneun ipsuldeul

          C Am 
Deoneun oemyeonhal su eobsi keojyeoganeun
    B 
Story story story

               Am Em 
Ttansarami haneun ne sarang yaegideul
       B Em 
So mellow, mellow, hanpyeonui deurama
                 Am Em 
Cham areumdapdeora, cham aeteutadeora
           B Em 
Narangeun dallasseotdeon geu sarang yaegineun

Naege malhajima

 Am Em 
Ttururup ttururup rappirappa neoui love story
 B Em 
Ttururup ttururup rappirappa naega anirae
 Am Em 
Ttururup ttururup rappirappa nunmuri heulleo
      B Em 
Na hana ppajyeoya wanbyeokhan iyagi

 Em Am 
Nuga bwado yeoningatdeon neohui dul
       B Em 
Naman mollatdae jeonbu aneun yaegirae
 Em Am 
Byeonmyeongjocha hal sigando eomneunji
       B Em 
Majimageuro neol bwatdeon ge eonjeni

          C Am 
Gwireul magabwado modu tteodeureodaeneun
   B 
Story story story

               Am Em 
Ttansarami haneun ne sarang yaegideul
       B Em 
So mellow, mellow, hanpyeonui deurama
                 Am Em 
Cham areumdapdeora, cham aeteutadeora
           B Em 
Narangeun dallasseotdeon geu sarang yaegineun

 Em Am B Em Am B 
(neoman anirago hamyeon dwae) nan
 Am Em 
Neol dasi gidarineun naega cham sirheo
 Am 
Amumal pillyo eobseo
 C B 
Nal dasi anajullae hey hey hey jebal

               Am Em 
Ttansarami haneun ne sarang yaegideul
       B Em 
So mellow, mellow, hanpyeonui deurama
                 Am Em 
Cham areumdapdeora, cham aeteutadeora
           B Em 
Narangeun dallasseotdeon geu sarang yaegineun

Naege malhajima

 Am Em 
Ttururup ttururup rappirappa neoui love story
 B Em 
Ttururup ttururup rappirappa naega anirae
 Am Em 
Ttururup ttururup rappirappa nunmuri heulleo
      B Em 
Na hana ppajyeoya wanbyeokhan iyagi

 Am                  
Ttururup ttururup rappirappa
 Em 
Ijeneun goodbye
 B 
Ttururup ttururup rappirappa
 Em 
Haengbokhani neon
 Am 
Ttururup ttururup rappirappa
 Em 
Saranghaesseo neor

B     Em (ler it fade)

Tiny Grain Of Truth Chords – Mark Lanegan

 Mark Lanegan
"Tiny Gain of Truth"
Blues Funeral
: smcclure09

standard tuning

Intro:  D C  (x2)

Vs:
 D C 
Put the pictures upon the shelf
     D C D C 
the ones i tore from magazines and paperbacks
 D C G 
im a keep my hurt inside now love
                     D C 
when its you i am following

Chs:
 D C 
whats done is done is done now
 D C 
whats done is done is done now
 D C 
whats done is done is done now
 D C 
whats done is done

Vs:
 D C 
send down the firewalker
 D C 
send down the neon priest
 D C 
send down the junky doctor
 D C 
send down the shadow king
 G D C 
down through the heart of the city at night
 D C G 
in black and white

Bridge:  D C  (x10)  G  then the following riff (x6):

e--------------------8-|
B-10-10-10-10-10-7-8---|
G----------------------|
D----------------------|
A----------------------|
E----------------------|

Vs:
 D C 
roll out to a blues funeral
 D C 
riding out in a long cortege
 D C 
gone with the mariachi
 D C 
gone with the butchermen
 G D C 
gone straight through the eye of a needle at night
 D C 
in black and white

Bridge:

e--------------------8-|
B-10-10-10-10-10-7-8---|
G----------------------|
D----------------------|
A----------------------|
E----------------------|

Vs:
 D C 
i blurred the pictures and fooled myself
 D C D C 
the ones that showed the terminal in negative
 D C G 
im a keep my hurt inside now love
                   D C 
and may you not uncover it

Chs:
 D C 
and blood is blood is blood now
 D C 
and blood is blood is blood now
 D C 
yes blood is blood is blood now
 D C 
and blood is blood
 G D C 
straight through the eye of a needle at night

Vs:
 D C 
send down the firewalker
 D C 
send down the neon priest
 D C 
send down the junky doctor
 D C 
send down the shadow king
 G D C 
out through the heart of the city at night

Outro:

e--------------------8-|
B-10-10-10-10-10-7-8---|
G----------------------|
D----------------------|
A----------------------|
E----------------------|


Chords used:
    D C G 
e-----------|
B-----------|
G--7--5-----|
D--7--5--5--|
A--5--3--5--|
E--------3--|

Sure Be Cool If You Did Tabs by Blake Shelton V2

 Blake Shelton - Sure Be Cool if You Did
Standard Tuning
Capo 4th fret

Haven't seen a tab with the intro and stuff so here is what I hear. I also looked at a 
video of Blake playing and this is what I could get out of it. Cheers!

Intro Riff (x2)

e|------------------------------3--3---------2h3p2--------------------------|
B|------------------------------3--3---------3------------------------------|
G|-------0----------0-----------0--0---------2------------------------------|
D|---------0------2-------------2--2---------0------------------------------|
A|--0h2------2--3------2b-------3--3---------x------------------------------|
E|------------------------------x--x---------x------------------------------|


                     G                     Cadd9             D
I was gonna keep it real like chill like only have a drink or two
e|-----------------------3----------------------3-------------3--3-----2-----|
B|-----------------------3----------------------3-------------3--3-----3-----|
G|-----------------------0----------------------0-------------2--2-----2-----|
D|-------------------0----------------------0-----------------0--0-----0-----|
A|-------------------0h2--------------------2h3---------------x--x-----x-----|
E|------------------------------------------------------------x--x-----x-----|
       G                        Cadd9                        D
But it turned into a party when I started talking to you
e|-----------------------3----------------------3-------------3--3-----2-----|
B|-----------------------3----------------------3-------------3--3-----3-----|
G|-----------------------0----------------------0-------------2--2-----2-----|
D|-------------------0----------------------0-----------------0--0-----0-----|
A|-------------------0h2--------------------2h3---------------x--x-----x-----|
E|------------------------------------------------------------x--x-----x-----|
  Cadd9                 D             Em                           G
  Now you're standing    in the neon looking like a high I wanna be on
  Cadd9                 D
  Baby it's your call,    no pressure at all


                  Cadd9                         G
You don't have to throw back your pretty pink lemonade shooter
    D
And lean a little closer
                  Cadd9                 G                       D
You don't have to keep on smiling that smile that's driving me wild
D
And when the night is almost over
Cadd9                      G                   D
Meet me in the middle of a moonlit Chevy bench seat
D                      Em      G             Cadd9
And do a little bit of country song, hanging on
Cadd9               G                    D
You don't have to keep me falling like this
D                             Cadd9
But it'd sure be cool if you did

G (hammer 2 on A string)     D



          G                          Cadd9                   D
You can't shoot me down cause you've already knocked me dead
e|-----------------------3----------------------3-------------3--3-----2-----|
B|-----------------------3----------------------3-------------3--3-----3-----|
G|-----------------------0----------------------0-------------2--2-----2-----|
D|-------------------0----------------------0-----------------0--0-----0-----|
A|-------------------0h2--------------------2h3---------------x--x-----x-----|
E|------------------------------------------------------------x--x-----x-----|
       G                      Cadd9                      D
Got me falling apart with my heart talking out of my head
e|-----------------------3----------------------3-------------3--3-----2-----|
B|-----------------------3----------------------3-------------3--3-----3-----|
G|-----------------------0----------------------0-------------2--2-----2-----|
D|-------------------0----------------------0-----------------0--0-----0-----|
A|-------------------0h2--------------------2h3-------

Stop Girl Chords – U-kiss

 { Please tell me if there is a chord error of some sort so I can correct it,thank you! }

Kpop Group: - UKISS - SONG: - STOP GIRL -
Capo 4 or 5
{ Intro :  Am , G , Em , A  ( x2 ) }

Yeah (x7) 

 F G Em 
Oh, soljikhi malhalge yeogikkajiga
                     Am            
Jeongmal majimagi anya no more, I'm so tired
 F G Em                                     
Oh, jogeum gidarilge nunmul boijineun ma
                           A                               
Siganeun ganeunde And the tears in your eyes tellin' me goodbye

 F G 
Some days huhoe hagetji Some days ulgido hagetji
 Em Am 
Today's the day that I''ll be flyin' away yeah
 F G 
Neol wihae modeun geol julge neol wihae sarangeul halge
 Em A 
And now my heart is depleted geunde neon wae ee

 Am G 
Stop girl, in the name of love
  Em A 
Stop girl, in the name of love Eh Eh
  Am G 
Stop girl, in the name of love
             Em A 
Kkumeun anilkkeoya I know your love isn''t real


{  Am , G , Em , A  }
Yeah (x4)


 F G 
And I know that igeon sarangi anijanha
            Em 
Urin geimi anijanha you
 A 
Neodo jal aljanha

 F G 
Some days huhoe hagetji Some days ulgido hagetji
 Em Am 
Today's the day that I''ll be flyin' away yeah
 F G 
Neol wi hae modeun geol julge neol wihae sarangeul halge
 Em A 
And now my heart is depleted geunde neon wae ee

 Am G 
Stop girl, in the name of love
  Em A 
Stop girl, in the name of love Eh Eh
  Am G 
Stop girl in the name of love
             Em A 
Kkumeun anilkkeoya I know your love isn''t real

     F G 
NOW STOP ije geumanhae ireon gwangye eotteon uimugame jeonhwahae bame
 Em Am 
"jalja" malhagi gojak ittange dande deoneun gunggeumhalge eomneun uri
Seulpeun gwangye

 F G 
STOP gakkeumeun niga tibie nawa amureochi anheun cheok haneunge utgyeo
Tonawa
 Em Am  
Tto nawan dareun cheok yeongmuneul moreuneun cheok neon hangsang kulhan
      A       
Cheok ijen geuman meomchwo

 Am G 
Stop girl, in the name of love
(Uri saranghaneungeo neodo aljanha)
  Em A 
Stop girl in the name of love Eh Eh
  Am G 
Stop girl in the name of love
             Em A 
Kkumeun anilkkeoya I know your love isn''t real

 Am G 
Neodo himdeulgetji nado da ara
  Em A 
Geuraedo seoro eobsin sal su eobtjanha
  Am G  
Neodo himdeulgetji nado da ara
  Em A 
Geuraedo seoro eobsin sal su eobtjanha


 Am G 
Stop girl, in the name of love

First Time Caller Acoustic Chords – White Lies

 Band: White Lies 
Song: First Time Caller - acoustic version 
Tabbed by: Martin. 
The new song from the new album, love it very much :)

Chords:  F D Dm C Bb Am G Gm F Dm C Bb                       x2


 F Dm                          
Darling, we're starting, she said
 C Bb 
      We go alive in a heartbeat
 F Dm                                
Waiting for something in my car
 C Bb             
      A little hope out of nothing
 Dm 
      Through the hum on the line


Chorus    
                  F C 
She said I was a first time caller
       Bb Dm Am 
But a long time listener
                     C G Bb 
I've been waiting a while to talk to you          x2


 F Dm C Bb F Dm                            
Falling like trash from the sky
         C Bb 
I hit a patchwork of loneliness, crooked and wild
 F Dm                            
Hung from the stars and dropped through the night
      C Bb                
To a heatwave in hard place-lessness, neon tiles
 Dm 
      And I got nothing but time


Chorus    
                  F C 
She said I was a first time caller
       Bb Dm Am 
But a long time listener
                     C G Bb 
I've been waiting a while to talk to you          x2


 Dm F Bb 
      I want you to love me
 F Gm 
More than I love you
 Dm C Dm 
Tell me if that's something you can do            x2


Only I Didnt Know Chords – Iu

 Intro:  Dm C G/B C/Bb F/A Bb E/G# A Dm F Gm C7sus F Bbm7 E/G# A7 

Verse 1:
 Dm C G/B 
Jeongmal neon da ijoeotdeora
 C/Bb Bb Asus4 A 
 Bangapge nal boneun    neoui eolgul boni
 Dm C G/B Gdim/Bb 
 Geujeya eoryeompushi apaodeora
        F/A E/G# A7sus A7 
 Sae sal chaoreuji mothan sangcheoga
 Bbm7 Eb7 Abm7 Eb/Db Db 
 Nunmureun heureujil anteora    
    Gm7 Fm Eb 
 Ibyeorira haneun ge daedanchido mothaeseo
    G7/D Gm7 Csus4 
 Ireoke bojalgeo seobseoseo

Chorus:
  C Fm/Ab Fm Bbm7 
 Joheun ibyeoriran geo, gyeolguk sesangen eomneun iriraneun geol
       Ebsus4 Eb Abm7 Gm7 
 Aratdamyeon geuttae charari da ureoldul geol
   Fm Eb Bb/D Bbm/Db 
 Geuttae imi naraneun geon negen kkeuchieot daneun geon
Bdim7             Csus4 Fm 
 Naman mollaesseotdeon iyagi

Verse 2:

 Sarangeun anieotdeora
 Nae gyeote meomuldeon shiganieosseul ppun
 Ijeya eoryeompushi al geotman gata
 Wae neon mianhaesseo yaman haenneunji
 Naega neomu deultteosseonna bwa
 Tteonaneun sunganmajeo gidaereul haesseotdani
 Eolmana ooseuwotdeon geoni

Chorus:

 Joheun ibyeoriran geo, gyeolguk sesangen eomneun iriraneun geol
 Aratdamyeon geuttae charari da ureoldul geol
 Geuttae imi naraneun geon negen kkeuchieot daneun geon
 Naman mollaesseotdeon iyagi

Neon Bedroom Chords – Glasvegas

 D Em A7 
Night times falling soon to your neighborhood I'll return to you
 D Em A7 
I crash clear as your window I'm looking through
 D Em A7 
A curiosity, somehow, invisible to you
 D Em A7 
I wa wa wa wa wander what happens in your
 Em A7 D 
Neon Bed----room

 D Em A7 
I spy with my little eyes something beginning with you
 D Em A7 
Approaching your home ?????? my eyes are blurred
 D Em A7 
The flickering of the tv makes a silhouette of you
 D Em A7 
A strope, a mistery, I wanted to 
 Em A7 D 
Into your Neon Bed----room

 D 
I'm someone younger, I'm someone new
 Em A7 
If you must pretend then I'll pretend too
 D Em A7 
Between your four walls ?????
 D Em A7 
Still I remain a stranger in your avenue
 D Em A7 
Still you remain a curiosity I can't help hold on to
         Em A7 D 
In your Neon Bed----room

 D 
On the borderline of youth weaving
 Em A7 
Goodbye childhood
 D 
Innocence gone for a good
 Em A7 
I'll be your one man soon if you teach me how to
 D Em A7 
Every night walking the ?????????
 D Em A7 
Every night I stop, I watch my own shadow lean
           Em A7 D 
Over your Neon Bed----room (x3)

Ring Pop Chords – Saves The Day

 The original song is in the key of B, but I transposed it to C to make it easier 
to learn. This song was released as an acoustic demo in February, but the official 
lyric video was released today (28AUG13). It's off of their self-titled album, 
soon to be released. These chords are how I play the song, it's a mix of the demo 
and the official track. 

 C 
Before we live forever say

 G 
Together we can be okay

 C 
If it's the last thing that we do

     Am C 
I wanna sing along with you


                      Am 
Don't know where to begin


Just a couple of kids

                    C 
When we met by the bar 

                     G 
At the side of the road

                 Am 
It was only a dream

                   
Saw you staring at me

                   C 
What I said to myself

                  G 
As I woke up to see

                  C 
It was already late

      G Am 
Ten ten in neon green

                      F 
And your number was on 

    G C 
My right hand in red ink




 C 
Before we live forever say

 G 
Together we can be okay

 C 
If it's the last thing that we do

    Am C 
I wanna sing along with you


                     Am 
Seven years will go by


In the blink of an eye

                   C 
Suddenly here we are

                        G 
Thinking what are the odds

                    Am 
Born on opposite coasts


For the two of us both

                    C 
Knowing in twenty years

                  G 
We would not be alone

                       C 
Might have made us a pair

     G Am 
Of zen like two year olds
               
                   F 
With a couple of ring pops

    G C 
No need to propose





 C 
Before we live forever say

 G 
Together we can be okay

 C 
If it's the last thing that we do

    Am C 
I wanna sing along with you


                   C 
And in seventy years 

                      G 
When somehow there’s a way

                  Am 
To be frozen in time

    G C 
Forever we will stay


 C 
Before we live forever say

 G 
Together we can be okay

 C 
If it's the last thing that we do

    Am C 
I wanna sing along with you

 C 
If it's the last thing that we do

    Am C 
I wanna sing along with you

      G 
And hear you singing too

              F 
This is our song

        G C 
I’ll always sing for you

Neon Cathedral Tabs by Macklemore V2

 "Neon Cathedral" by Macklemore
This is my first tab. I came up with this playing by ear along with the original song.
I tried to work out spacing to show if a note should ring for a longer or shorter period 
of time.
However, this is more of a template. Play this along with the original to get down the details
of how it's supposed to sound exatly.
No Capo
Standard Tuning

Verse 1:
  __________________________________________________________________________
E|--------------------------------------------------------------------------|
B|--------------------------------------------------------------------------|
G|-9----9-11-12-11-9-7-------9h11h12-9----9-11-12-11-9-7---9-7-----------9--|
D|---------------------9---------------------------------9-----9--7---9-----|
A|--------------------------------------------------------------------------|
E|--------------------------------------------------------------------------|
Verse 1 Cont:
  __________________________________________________________________________
E|--------------------------------------------------------------------------|
B|--------------------------------------------------------------------------|
G|---9-7-----7----9h12-9------9-11-12-11-9-7--------------------------------|
D|-9-------9---------------------------------9------------------------------|
A|--------------------------------------------------------------------------|
E|--------------------------------------------------------------------------|
Verse 1 Cont (This begins simultaneously with the tab above. You'll hear it listening to 
the song):
  __________________________________________________________________________
E|--------------------------------------------------------------------------|
B|----------------------------12-12-10-10---------------------12-12-10-10---|
G|---------------------9(x12)-------------9(x12)-7(x4)-9(x12)---------------|
D|--------------------------------------------------------------------------|
A|--------------------------------------------------------------------------|
E|--------------------------------------------------------------------------|
Verse 1 Cont (End of the first verse. A few seconds into the chorus):
  __________________________________________________________________________
E|--------------------------------------------------------------------------|
B|---------------------12-12-10-10------------------------------------------|
G|-9(x12)-7(x4)-9(x12)------------------------------------------------------|
D|--------------------------------------------------------------------------|
A|--------------------------------------------------------------------------|
E|--------------------------------------------------------------------------|
Chorus (This comes a few seconds into the chorus as soon as you play the last note from 
verse 1):
  __________________________________________________________________________
E|--------------------------------------------------------------------------|
B|--------------------------------------------------------------------------|
G|---------7-9----9------------7---9----7------------------7---9----7----9--|
D|-10----------------10----10-------------------10-----10-------------------|
A|--------------------------------------------------------------------------|
E|--------------------------------------------------------------------------|
Verse 2 (Repeat four times throughout the 2nd verse. The fourth time ends the 2nd verse 
and ends
a few seconds into the chorus again):
  __________________________________________________________________________
E|--------------------------------------------------------------------------|
B|--------------------------------------------------12-12-------------------|
G|-------------9-----7------12---12-11-----11-12----------------------------|
D|-9-----7------------------------------------------------------------------|
A|-------------

Lifegoeson Chords – Noah And The Whale V8

 -Intro-

 E A B A E A B A 


-Verse 1-

 E                          
Lisa likes brandy and the way it hits her lips,
                                   
She's a rock 'n' roll survivor with pendulum hips,
           A 
She's got deep brown eyes,
                      E 
That've seen it all.
 
 E                                
Working at a nightclub that was called The Avenue
                                    
The bar men used to call her "Little Lisa, Looney Tunes"
          A 
She went down, 
                     E 
on almost anyone.


          F#m G#m/E 
From the hard time living 'til the Chelsea days,
               A B 
From when her hair went sweet blonde 'til the day it turned grey

She said;
 

-Chorus-

 E A 
L.I.F.E.G.O.E.S.O.N.
        B A 
You've got more than money and sense, my friend
            E A B A 
You've got heart, and you're goin' your own way.
 E A 
L.I.F.E.G.O.E.S.O.N.
          B A 
What you don't have now will come back again
            E A B A 
You've got heart, and you're goin' your own way.


-Verse 2-

      E                                 
Some people wear their history like a map on their face,
                          
And Joey was an artist just living out of case,
         A E  
But his best work, was his letters home.
 
     E                                 
His standard works of fiction about imaginary success,
                                 
The chorus girls in neon were his closest things to friends,
          A E  
But to a writer, the truth is no big deal.
 

          F#m G#m/E 
From the hard time living to the sleepless nights,
         A B 
And the black and blue body from the weekend fights

He'd say;
 

(Repeat Chorus)


-Bridge-

       A E C#m B 
On my last night on earth, I won't look to the sky
      E A C#m B 
Just breathe in the air and blink in the light
       A E C#m B 
On my last night on earth, I'll pay a high price
    E A C#m B 
To have no regrets and be done with my life
 

(Repeat Chorus)





Corrections? Comments? Let me know!

Happy Playing!

-Sam