Tag: nothings

Ooh You Tabs – Cloud Nothings

 ------------------------|
-------5--------5--3----|
-3--4-----3--4--------4-|
------------------------|
------------------------|
------------------------| x4

Then power chords come in.

Em - G - C - G


Em      G           C          G
I was a man and but you were a wolf...

We met one day in the woods

You said it wouldn't be easy

You said you wouldn't work out


(Palm muted)
------------------------------------------------|
------------------------------------------------|
------------------------------------------------|
------------------------------------------------|
------------------------------------------------|
-5--5--5--5--5--5--5--5--0--0--0--0--3--3--3--3-|


CHORUS

Melody:
Oo-oo--ooo oh oo-oo--oo--oh

---------------------|
---------------------|
---------------------|
---------------------|
-2--0--------2--0----|
------3-0--0-------3-|


Chords:

Am -- Em - G

------------------------|
-------5--------5--3----|
-3--4-----3--4--------4-|
------------------------|
------------------------|
------------------------| x4

Bass comes in with an E

I have no idea what the lyrics of this verse are. The same verse, bridge and chorus 
repeat to finish
the song, playing the intro riff over the chorus at the end.

Im Not Part Of Me Tabs – Cloud Nothings

 -------------------------------------------------------------------------------
                             Im Not Part of Me - Cloud Nothings
-------------------------------------------------------------------------------
: Asmus Gregersen

Tuning: Standard

The tab is a little incomplete. I haven't tabbed the outro, and also it says nothing about the rhythm.
It would be nice if someone else could finish it. It is based on some live videos from youtube,
including some acoustic versions which are actually really nice. 

Intro
e|-----------------------------------|
B|-----------------------------------|
G|-----------------------------------|
D|-6--8-3--5-------------------------| x2 
A|-6--6-4--4-------------------------|
E|-4--6-4--4-------------------------|

Verse 
e|-----------------------------------|
B|-----------------------------------|
G|------8---5-6-5-5------8--5-6-8----|      Tjek opgang her.
D|-6----8---6-6-6-8---3--8--6-6-6----| x2 
A|-6----6---x-x-x-x---3--6--x-x-x----|
E|-4----6---4-4-4-4---1--6--4-4-4----|

Bridge 
e|-----------------------------------|
B|-9----9---9---------8---9-8--------|
G|-x----12--10--------x---x-x--------| x3
D|-10---10--10--------8---8-8--------|
A|-8----8---8---------6---6-6--------|
E|-----------------------------------|


e|-----------------------------------| 
B|-9---9s8---6-----------------------|
G|-x---x-----6-----------------------|
D|-10--8-----6-----------------------|
A|-8---6-----4-----------------------|
E|-----------------------------------|

e|-----------------------------------|
B|-9---------------------------------|
G|-10------8-------------------------|
D|-10------8-------------------------| x 3 
A|-8-------6-------------------------|
E|-8-------6-------------------------|

e|-----------------------------------| 
B|-9---9s8---6-----------------------|
G|-x---x-----6-----------------------|
D|-10--8-----6-----------------------|
A|-8---6-----4-----------------------|
E|-8---6-----------------------------|

Pre chorus
e|-----------------------------------|
B|-----------------------------------|
G|------------8--6-------------------|
D|-6---6---3--8--6-------------------|
A|-6---4---3--6--4-------------------|
E|-4---4---1-------------------------|

e|-----------------------------------|
B|-----------------------------------|
G|---------10 -8--6------------------| On the last chord: add some dissonance (dont know which note...)
D|-6---6---10--8--6------------------|
A|-6---4---8- -6--4------------------|
E|-4---4-----------------------------|

Chorus 
e|-----------------------------------|
B|-----------------------------------|
G|--------6-----------8--------------|
D|-8------6-----6-----8--------------|
A|-8------4-----6-----6--------------| x2
E|-6------------4--------------------|

e|-----------------------------------|
B|-----------------------------------|
G|--------6-5-----------8------------|
D|-8-10---6-6---6-8---8-8------------|
A|-8-8----4-4---6-6---6-6------------| x2
E|-6-6----------4-4--(6)-------------|

e|-----------------------------------|
B|-----------------------------------|
G|(10)-(10)--------------------------|
D|-11---12---------------------------|
A|-11---11---------------------------|
E|-9----9----------------------------|

Outro 

************************************

| /   slide up
| \   slide down
| h   hammer-on
| p   pull-off
| ~   vibrato
| +   harmonic
| x   Mute note
| b   Bend
| pb  Pre-bend
| br  Bend release
| pbr Pre-bend release
| brb Bend release bend

************************************

Nothings Gonna Stop Us Now solo Tabs by Starship V4

 Well, this isn't also the exact album version but it's better than most solos of 
this that I've checked.

             Legend:
|--------------------------------|
|P - Palm Mute                   |
|--------------------------------|

                                                    P     P      P
e|-----------------------------------------------8-----7------------------|
B|--12~-------------15--15b17----\10--8~---------------------10-----8-----|
G|--12~---14--12-----------------------------/9-----9-----9------9--------|
D|------------------------------------------------------------------------|
A|------------------------------------------------------------------------|
E|------------------------------------------------------------------------|


                                   *Bend the 15 further from 17 for the 19
e|-----------------------------------15b17b19r-15--12\------------12------|
B|--------------12---15b17--r15b17----------------------------------------|
G|--9b10r9-7-----------------------------------------------14b16----------|
D|------------------------------------------------------------------------|
A|------------------------------------------------------------------------|
E|------------------------------------------------------------------------|



e|----------------------------------------------------------------19--22~~|
B|--15p12----------------------------------------------------15-----------|
G|---------14b16r14-----14------12--14----12~-----------/16---------------|
D|-------------------14-----14-----------------14-------------------------|
A|------------------------------------------------------------------------|
E|------------------------------------------------------------------------|