Tag: oh

Show Me Your Way Oh Lord chords – Glen Campbell

 Show Me Your Way Oh Lord
Glen Campbell and Ann Murray
album Show me your way

Intro  B F# B F# B 


Verse 1

(Glen)
 B E B 
When I find myself in sadness
 E B F# 
And fear of all to which I drift
                       E B 
I climb the stairs of gladness
 E B F# B 
And face the light of God instead

Verse 2

(Ann)
 B E B 
As I wander through the darkness
 E B F# 
I search for all that's truth and right
                      E B 
To walk the paths of glory
 E B F# B F# B E 
And see the lamp of Gods true light

Chorus 1

(both)
 B E 
Show me Your way, oh Lord
 C# B E F# 
And let me sing all praise to Thee
 B E B 
Take my heart and hear my prayer
    E B 
I need Your love to show me

Verse 3

(Glen)
 B E B 
As I feel the world awakin'
(ANN)
 E B F# 
The wonder of Your gentle hand
(Glen)
                        E B 
Will touch all hearts, arisin'
(Both)
     E B F# B E 
And change the empty course of man

Chorus 2

 B E 
Show me Your way, oh Lord
     F# B E F# 
And let me sing all praise to Thee
 B E 
Take my heart and hear my prayer
             B E 
I need Your love to show me

Verse 4

(Glen)
 B E 
I was livin' for fame and passion
 E C# 
All my feelings have slipped away
                 B 
As I longed for another passion
 C# B E F# G# 
To lead me to this place today

Chorus 3

(Both)
 C# F# C# 
Show me Your way, oh Lord
 G# C# F# G# 
And let me sing all praise to Thee
 C# F# C# 
Take my heart and hear my prayer
   F# C# 
I need Your love to show me
(Glen)
   F# C# G# C# F# G# 
I need Your love to show me

flyinglibra51
God Bless Glen Travis Campbell

Oh What A Woman chords – Glen Campbell

 Oh What A Woman
Glen Campbell
written by Jerry Hubbard (Jerry Reed's Real Name)
1969 album Galveston

Intro is a Riff

Verse 1

 G7 C G7 
Oh what a woman, she treats me uncommonly good
           
Yeah she does
  C G7                     
My My woman she treats me like my woman should

Yeah she does

Chorus  1
                      C G7 
Well shes, good as a woman can be
 C D  
anything to satisfy me, yeah 
 G7 C G7 
Oh what a woman, she treats me uncommonly good


Verse 2

    G7  N/C
Oh well she cleans my house, she sews my briches
    C    N/C
Scratches my back every time it itches
     G7 
She Cooks my food and has my youngin's
    C    N/C                               G7
She makes me proud that she's my woman  Yeah

Chorus 2

          D G7 
Well she knows I like corn bread, butter milk,
                      C 
onions and tomatoes, white beans turnip greens
                 G7 
Irish potatoes, she sets me a table thats fit for 
                C    N/C                   G7
a King and she loves just being my queen.  Oh
                               C G7 
Oh what a woman she treats me uncommonly good

riff

Verse 3

 C G7 
Well some fellows don't know when they take a wife
   C 
A just what kind a woman they're stuck with for life
   G7 C 
I know men he took a spouse, she winds up wearing the
                        G7 C 
britches in the house. Ugg I'm not ready for that  No

Chorus 3

      G7               
Well take my little woman on the other hand
 C          
she can't do enough to please her man
 G7 
She spends her time just a being my girl
 C G7 
There's not another like her in the world  no
                             C G7 
Oh what a woman, treats me uncommonly good.

Yes she does.

Outro
 
 C G7 
My my woman, she treats me like my woman should.
                    C D 
She's as good as a woman can be, anything to satisfy me
                G7 C G7 
Yeah, Oh what a woman, treats me uncommonly good.  Yeah

riff

flyinglibra51
God Bless Glen Travis Campbell

Oh Darling chords – The Beatles V5

 

Oh Darling!  ♫ Lennon/McCartney ♫ 



E+      A E 
   Oh! Darling    please believe me
 F#m D 
  I'll never do you no harm
   Bm E7 
Believe me when I tell you
 Bm E7 A D A   
  I'll never do you no harm 
----------


 E A E 
   Oh! Darling   if you leave me
 F#m D 
  I'll never make it alone
 Bm E7 
 Believe me when I beg you  ooooh
 Bm E7 A D A  
 Don't ever leave me alone
----------


 A7 D F7 
   When you told me   you didn't need me anymore
          A A7 A A7 
Well you know I nearly broke down and cried
          B7 
When you told me   you didn't need me anymore
         E7            F75           E7   E+
Well you know I nearly fell down and died...
----------


     A E 
Oh! Darling   if you leave me
 F#m D 
  I'll never make it alone
   Bm E7 
Believe me when I tell you
 Bm E7 A D A           
  I'll never do you no harm      (Believe me, darling)
----------


 A7 D F7 
   When you told me  oooooh you didn't need me anymore
          A A7 A A7 
Well you know I nearly fell down and cried
          B7 
When you told me   you didn't need me anymore
         E7            F75           E7   E+
Well you know I nearly fell down and died...
----------


     A E 
Oh! Darling   please believe me
 F#m D 
I'll never let you down    (“oh believe me Darling”)
   Bm E7 
Believe me when I tell you  oooooh
 Bm E7 A D A Bb7 A7 
  I'll never do you no harm

Enjoy and plesae rate!!


Oh Lonesome Me chords – Don Gibson V2

 Oh Lonesome Me:Don Gibson.
#1 US Country and #7 on BB Hot
100 on RCA Records in 1958.

INTRO:  Eb 

#1.
 Eb Bb 
Everybody's goin' out and havin' fun.

I'm just a fool for staying home and 
 Eb 
havin' none.
                                 Ab 
I can't get over how she set me free.
 Bb Eb 
Oh, lonesome me.

#2.
 Eb Bb 
A bad mistake I'm making by just hangin'

round.
 Bb 
I know that I should have some fun and 
 Eb 
paint the town.
 Eb Ab 
A lovesick fool is blind and just can't see.
 Bb Eb 
Oh, lonesome me.

CHORUS:
      Bb F 
I'll bet she's not like me, she's out and 

fancy free..flirting with the boys with all 
     Bb 
her charms.
 Bb F 
But I still love her so, and brother don't 

you know..I'd welcome her right back here 
       Bb 
in my arms.

#3.
 Bb Eb 
Well, there must be some way I can lose these 
 Bb 
lonesome blues.
 Bb Eb 
Forget about the past and find somebody new.
 Eb Ab 
I've thought of everything from A to Z.
 Bb Eb 
Oh, lonesome me.


INTERLUDE:  Eb Bb Eb Ab Bb Eb 

CHORUS:
      Bb F 
I'll bet she's not like me, she's out and 

fancy free..flirting with the boys with all 
     Bb 
her charms.
 Bb F 
But I still love her so, and brother don't 

you know..I'd welcome her right back here 
       Bb 
in my arms.

#4.
 Bb Eb 
Well, there must be some way I can lose these 
 Bb 
lonesome blues.
 Bb Eb 
Forget about the past and find somebody new.
 Eb Ab 
I've thought of everything from A to Z.
 Bb Eb 
Oh, lonesome me.

OUTRO:
 Bb Eb Bb Eb 
Oh, lonesome me..oh, lonesome me..(Fade.)



A fifties smash from Kraziekhat.

Oh Holy Night Tabs – Adolphe Adam

 O Holy Night “Cantique de Noel”
Author: Adolphe Charles Adam
: Markus Didik Naryadi 
                  didiknm

Standard Tuning
Time Signature: 6/8
Key Signature: A Major


*** I found this fingerstyle on youtube & I tried to play this song with my guitar. 
I modified some parts and made it simple to be played. 
This is my first time to transcript a song into a tablature. 
So, please correct me if there were any mistake.....

    
                             O Holy Night
“Cantique de Noel”
                                                            //Repeat
e--------------|--------------|--------------|--------------|--------------|
B-------2------|-------0------|-------2------|-------2------|-2-----2---2--|
G-----2---2----|-----1---1----|-----2---2----|-----2---2----|-----2---2----|
D---2-------2--|---2-------2--|---2-------2--|---2-------2--|---2-------2--|
A-0------------|--------------|-0------------|-0------------|-0------------|
E--------------|-0------------|--------------|--------------|--------------|
 
e-0---------0--|-2-----2---2--|-5------------|-0-----0------|--------------|
B-------2------|-----3---3----|-------2------|-------2-2-0--|-------2---3--|
G-----2---2----|---2-------2--|-----2---2----|-----2---2----|-2---2---2----|
D---2-------2--|--------------|---2-------2--|---2-------2--|---2-------2--|
A-0------------|-5------------|-0------------|-0------------|-0------------|
E--------------|--------------|--------------|--------------|--------------|


e-0-----------|---------------|--------------|
B-------3---0-|-------2-------|-------2------|
G-----1---1---|-2---2---2-----|-----2---2----|
D---2-------2-|---2-------2---|---2-------2--|
A-------------|-0-------------|-0------------|
E-0-----------|---------------|--------------|



e--------------|-0---------0--|-2-----2---2--|-5------------|-0-----0------|
B-2-----2---2--|-------2------|-----3---3----|-------2------|---------4----|
G-----2---2----|-----2---2----|---2-------2--|-----2---2----|-----------6--|
D---2-------2--|---2-------2--|--------------|---4-------4--|---4-6--------|
A-0------------|-0------------|-5------------|--------------|-------3------|
E--------------|--------------|--------------|-2------------|-4------------|


e-4------------|-4-----7p5---4-|--------------|-----------0--|-0-----2------|
B-------5---7--|---------------|-------6------|-------6------|-------0------|
G-----6---6----|-----4---------|-----6---6----|-----6---6----|-----1---1----|
D---6-------6--|---6-----------|---6-------6--|---6-------6--|---2-------2--|
A-4------------|---------------|--------------|--------------|--------------|
E--------------|-4-------------|-9------------|-9------------|-0------------|


e-------0-------|-2-----5------|-2-----0---0--|-0-----2------|-------0------|
B-0-----0-------|-----5-2---2--|-------2------|-------0------|-0-----0------|
G-----1---1-----|-----2---2----|-----2---2----|-----1---1----|-----1---1----|
D---2-------2---|---2-------2--|---2-------2--|---2-------2--|---2-------2--|
A---------------|-0------------|--------------|--------------|--------------|
E-0-------------|--------------|-0------------|-0------------|-0------------|


e-2-----5-------|-0-------------|-5------------|-------4---2--|-4------------|
B-----5-2---2---|---------------|-------2------|-------2------|-------5------|
G-----2---2-----|-----2-----2---|-----2---2----|-----2---2----|-----6---6----|
D---2-------2---|---2-----2-----|---4-------4--|---4-------4--|---6-------6--|
A-0-------------|-0-------------|--------------|--------------|-4------------|
E---------------|-------4-------|-2------------|-2------------|--------------|

e-------4-------|-7-------------|-----2-2---2--|-5------------|-------5------|
B-------5-------|-------7-------|-------3------|-------2------|--------------|
G-----6---6-----|-----7---7-----|-----4---4----|-----2---2----|-----2-----2--|
D---6-------6---|---9-------9---|---4-------4--|---4-------4--|---4----

Like The Dawn Tabs – The Oh Hellos

 It's a rough tab, but it sounds pretty close to me, save for a few bars where they adjust the chords a bit. It's
a consistent picking though, so if you listen to the song you should pick it up soon enough.

Capo 1

Intro:

  Em7/B           G               D
e|--3---3---3---3---3---3---3---3---2---2---2h3-2---2---2---2---2-|
B|----3-------3-------3-------3-------3-------3-------3-------3---|
G|-0---0---0---0---0---0---0---0---2---2---2---2---2---2---2---2--|   x2
D|2-------2-------0-------0-------0-------0-------0-------0-------|
A|----------------------------------------------------------------|
E|----------------------------------------------------------------|

Verse:
  Em7/B           G               D
e|--3---3---3---3---3---3---3---3---2---2---2h3-2---3---2---2---2-|
B|----3-------3-------3-------3-------3-------3-------3-------3---|
G|-0---0---0---0---0---0---0---0---2---2---2---2---2---2---2---2--|   x3
D|2-------2-------0-------0-------0-------0-------0-------0-------|
A|----------------------------------------------------------------|
E|----------------------------------------------------------------|

  Em7/B           G               Bm              D5
e|--3---3---3---3---3---3---3---3---2---2---2---2---5---5---5---5-|
B|----3-------3-------3-------3-------3-------3-------3-------3---|
G|-0---0---0---0---0---0---0---0---4---4---4---4---2---2---2---2--|
D|2-------2-------0-------0-------4-------4-------0-------0-------|
A|----------------------------------------------------------------|
E|----------------------------------------------------------------|

  Em7/B                           D               G
e|--3---3---3---3---3---3---3---3---2---2---2---2---3---3---3---3-|
B|----3-------3-------3-------3-------3-------3-------3-------3---|
G|-0---0---0---0---0---0---0---0---2---2---2---2---0---0---0---0--|
D|2-------2-------2-------2-------0-------0-------0-------0-------|
A|----------------------------------------------------------------|
E|----------------------------------------------------------------|

  Bm      A       G       D       Em7/B
e|--2---2---0---0---3---3---2---2---3---3---3---3---3---3---3---3-|
B|----3-------2-------3-------3-------3-------3-------3-------3---|
G|-4---4---2---2---0---0---0---2---0---0---0---0---0---0---0---0--|
D|4-------2-------0-------0-------2-------2-------2-------2-------|
A|----------------------------------------------------------------|
E|----------------------------------------------------------------|

Break:

  Em7/B           G               Bm              Amaj
e|--3---3---3---3---3---3---3---3---2---2---2---2---5---5---5---5-|
B|----3-------3-------3-------3-------3-------3-------2-------2---|
G|-0---0---0---0---0---0---0---0---4---4---4---4---2---2---2---2--|   x2
D|2-------2-------0-------0-------4-------4-------2-------2-------|
A|----------------------------------------------------------------|
E|----------------------------------------------------------------|

Verse:
  Em7/B           G               D
e|--3---3---3---3---3---3---3---3---2---2---2h3-2---3---2---2---2-|
B|----3-------3-------3-------3-------3-------3-------3-------3---|
G|-0---0---0---0---0---0---0---0---2---2---2---2---2---2---2---2--|   x3
D|2-------2-------0-------0-------0-------0-------0-------0-------|
A|----------------------------------------------------------------|
E|----------------------------------------------------------------|

  Em7/B           G               Bm              D5
e|--3---3---3---3---3---3---3---3---2---2---2---2---5---5---5---5-|
B|----3-------3-------3-------3-------3-------3-------3-------3---|
G|-0---0---0---0---0---0---0---0---4---4---4---4---2---2---2---2--|
D|2-------2-------0-------0-------4-------4-------0-------0-------|
A|----------------------------------------------------------------|
E|----------------------------------------------------------------|

  Em7/B           G               Bm              A
e|--3---3---3---3---3---3---3---3---2---2-

Sugar You chords – Oh Honey

 Oh Honey - Sugar, You

Standard tuning - No Capo

    A D E F#m 
e|-0---2---0---2-|
B|-2---3---0---2-|
G|-2---2---1---2-|
D|-2---0---2---4-|
A|-0---x---2---4-|
E|-x---x---0---2-|

Intro:
 A A A D A D 
 Sugar don't you change a thing you're already everything I want
 A D 
 Sugar don't you change a thing can't you see you're everything I'm not
  A D A 
 HEY YOU You are something beautiful floating through my mind like you do
  A D A 
 HEY YOU You are something wonderful wish you could see you like I do
  F#m D A 
 You're already everything I want
 F#m D A 
 Can't you see you're everything I'm not


         D A E 
 Sugar, you I wanna get to know ya
         D A E 
 Sugar, you I wish that I could hold ya
                      D A    
 You're busy playing nice you sweeten up my life
                  E F#m 
 I'm here making eyes tryna keep you by my side
         D A E 
 Sugar, you I wanna get to know ya


 A D 
 Honey I won't let this fail we could move just like a snail at first
     A D 
 No Honey I won't let this fail we'll ride it out we'll laugh until it hurts, till it hurts
  A D A 
 HEY YOU You are something magical Lighting up the dark like you do
  A D A 
 HEY YOU You are something spiritual Wish you could see you like I do
  F#m D A 
 You're already everything I want
 F#m D A 
 Can't you see you're everything I'm not


         D A E 
 Sugar, you I wanna get to know ya
         D A E 
 Sugar, you I wish that I could hold ya
                      D A    
 You're busy playing nice you sweeten up my life
                  E F#m 
 I'm here making eyes tryna keep you by my side
         D A E 
 Sugar, you I wanna get to know ya


  D F#m E A E 
 Sugar stay in my eyes I've been looking for you my whole life
  D F#m E A E 
 Sugar you're right on time I've been waiting for you my whole life
  D F#m E A E 
 Sugar stay in my eyes I've been looking for you my whole life
  D F#m E A E 
 Sugar you're right on time I've been waiting for you my whole life


         D A E 
 Sugar, you I wanna get to know ya
         D A E 
 Sugar, you I wish that I could hold ya
                      D A    
 You're busy playing nice you sweeten up my life
                  E F#m 
 I'm here making eyes tryna keep you by my side
         D A E 
 Sugar, you I wanna get to know ya




Enjoy!
-Sace

Oh Babe chords by Sing-Sing

         
   Intro:  D Em D Em A7  pause

                I
        Bm F#m 
   Oh babe, isang tingin mo lang
     Em A7 D 
   Para na 'kong tinutunaw
   Em A7 F#m Bm 
   Pag ika'y lumapit na
   Em A7 
   Ang dibdib ko'y puro kaba

                II
       Bm F#m 
   Oh babe, isang halik mo lang
      Em A7 D 
   Ang mundo ko'y nagugunaw
   Em A7 F#m Bm 
   Pag ako'y niyakap mo
   Em A7 
   Kalas lahat ang buto ko

               Refrain
        Bm F#m 
   Oh babe, ako ay talagang patay sa 'yo
       Em A7 D 
   Sa true love mo ako mahihimlay
   Em A7 F#m Bm 
   Babe, ano nga bang tunay na sikreto mo
      Em A7 
   At ako ay nabihag mo nang husto

               III
       Bm F#m 
   Oh babe, isang ngiti mo lang
   Em A7 D 
   Pawi na ang aking uhaw
   Em A7 F#m Bm 
   Huwag ka lamang tatawa
   Em F#m B7 
   Baka ako'y malunod na

   
               Refrain
        Bm F#m 
   Oh babe, ako ay talagang patay sa 'yo
       Em A7 D 
   Sa true love mo ako mahihimlay
   Em A7 F#m Bm 
   Babe, ano nga bang tunay na sikreto mo
      Em A7 
   At ako ay nabihag mo nang husto
   
               III
       Bm F#m 
   Oh babe, isang ngiti mo lang
   Em A7 D 
   Pawi na ang aking uhaw
   Em A7 F#m Bm 
   Huwag ka lamang tatawa
   Em F#m B7 
   Baka ako'y malunod na

   F#m B7 E F#m E F#m E  
   Baka ako'y malunod na

Oh Coal Black Smith chords – Current-93

 Artist : Current 93
Title : Oh Coal Black Smith

Verse:

 Em C   x4

 Em C 
Oh she looked out of the window

 Em C 
As white as any milk

 Em C 
But he looked in the window

 Em C 
As black as any silk

 Em C 
"Hello hello hello hello

 Em C 
Hello you coal black smith

 Em C 
Oh what is your silly song?

 Em C 
You shall never change my maiden name

 Em C 
That I have kept so long

 Em C 


Chorus:

 Em C 
I'd rather die a maid, yes"

 Em C 
But then she said

 Em C 
"And be buried in my grave, yes"

 Em C 
And then she said

 Am 
"Than I'd have such a nasty, husky, dusky, musty, fusty coal black smith,

 Em C  x2

Verse:

 Em C 
A maiden will I die"

 Em C Em C 
A maiden will I die"

 Em C Em C 
Then she became a duck

 Em C 
A duck all on the stream

 Em C 
And he became a water dog

 Em C Em C 
And fetched her back again

 Em C  x2

 Em C 
Then she became a hare

 Em C 
A hare all on the plain

 Em C 
And he became a greyhound dog

 Em C Am 
And fetched her back again

 Em C 
Then she became a fly

 Em C 
A fly all in the air

 Em C 
And he became a spider

 Em C Em C 
And fetched her to his lair

 Em C  

Chorus:

 Em C 
I'd rather die a maid 

 Em C 
But then she said

 Em C 
"And be buried in my grave 

 Em C 
And then she said

 Am 
"That I'd have such a nasty, husky, dusky, musty, fusty coal black smith,

 Em C  x2

:|When you reach this point, repeat everything above

Verse:

 Em C 
A maiden will I die"   x7

 Em C Em C 
Oh she looked out of the window

 Em C 
As white as any milk

 Em C 
But he looked in the window

 Em C 
As black as any silk

 Em C 
"Hello hello hello hello

 Em Am 
Hello you coal black smith

 Am 
Oh what is your silly song?

 Am 
You shall never change my maiden name

 Am Em 
That I have kept so long

 Em C  x2


Chorus:

 Em C 
I'd rather die a maid 

 Em C 
But then she said

 Em C 
"And be buried in my grave 

 Em C 
And then she said

 Am 
"That I'd have such a nasty, husky, dusky, musty, fusty coal black smith,

 Em C 
A maiden will I die" 


Verse:

 Em C 
Then she became a duck

 Em C 
A duck all on the stream

 Em C 
And he became a water dog

 Em C 
And fetched her back again

 Em C 
Then she became a hare

 Em C 
A hare all on the plain

 Em C 
And he became a greyhound dog

 Am 
An

Oh Come Oh Come Emmanuel Tabs – Christmas Songs

 Made this tab by ear, hope it is correct and you enjoy!
Standard Tuning


Stave 1:

O come o come emmanuel
And ransom captive Israel

E|--------------------------------------------------------------|
B|--------------------------------------------------------------|
G|-----0--4--4--4--2--5--4--2--0--2--4--0-----------------------|
D|--2--------------------------------------2--5--7--4--2--0--2--|
A|--------------------------------------------------------------|
E|--------------------------------------------------------------|

Stave 2:

That mourns in lonely exile here
Until the Son of God appears

E|-----------------------------------------------------------|
B|-----------------------------------------------------------|
G|--2--2-----------------------0--2--4--4--4--2--5--4--2--0--|
D|--------2--2--4--5--4--2--0--------------------------------|
A|-----------------------------------------------------------|
E|-----------------------------------------------------------|

Stave 3:

Rejoice rejoice
Emmanuel shall come to thee oh Israel

E|--------------------------------------------------------------|
B|--------------------------------------------------------------|
G|--7--7--4--4--4--2--5--4--2--0--2--4--0-----------------------|
D|-----------------------------------------2--5--7--4--2--0--2--|
A|--------------------------------------------------------------|
E|--------------------------------------------------------------|

Oh Selina chords – Inochi Austin

 Intro -  C D Am Dm G C C             
Oh Selina...
 Am Dm 
Ayas nuan di mata ku
 G Em Am 
Baru belabuh pengerindu nuan siko
           Dm G C 
pengeran ati ku ba nuan meruan rindu

 C 
Oh Selina...
 Am Dm 
Chukup dalam di ati ku
 G Em 
Janji-janji tua ti dulu
             Am Dm G 
Sekumbang udah betemu asai ke dunya tu
             C 
Tua aja ngempu

Chorus:

            Dm G 
Nuan meh dara sulu ku
          Em Am 
Penyayau baru bepadu
             Dm G 
Udah di tanggam tua dulu
                 C 
Sunyi nadai sulu

            Dm G 
Pulai meh nuan kitu
               Em Am 
Ngambi nadai puang ba ati ku
             Dm G C 
Udah tua setuju deka idup segulai

***  Dm G Em Am Dm G C Dm G C 
Udah tua setuju deka idup segulai


Maju meh Lgu iban...

Oh Carol chords – Four Seasons

 Oh, Carol:Four Seasons.
Album - Sherry And 11 Others - #6 on
BB Hot 200 on VEE-JAY Records in 1962.

INTRO:  Eb Ab  F..Cm  Ab F Eb Cm Eb 
Carol! (ah-ah-ah-ohh) Carol! Carol! 
               Cm 
(woo-oo-ooo!) Carol!

#1.
     Eb Cm 
Oh! Carol, oh, I am but a fool.
            Ab Bb 
Darling, I love you, though you treat me cruel.
     Eb Cm 
You hurt me and you make me cry-y-y-y.
            Ab Bb Eb 
But if you leave me, I will surely die.

CHORUS:
                     Cm Eb 
Darling, there will never be another..cause I 
          Cm 
love you so.
            Ab Bb 
Don't ever leave me..say you'll never go.

#2.
 Ab Gm Eb 
I will always want you for my sweetheart.
                    Cm 
No matter what you do.
     Ab Bb Eb B Eb 
Oh! Carol..I'm so in love with you.


#3.(Spoken:adlib:)
     Eb Cm 
Oh! Carol..(ooo-ooo-ooo-ooo) I am but a fool 

(yi-yi-yi-yi)
 Ab 
Darling..I love you (ooo-ooo-ooo-ooo) 
 Bb 
Though you treat me cruel (aahhhhhhhh)
 Eb Bb Eb Cm 
You hurt me (yi-yi-yi-yi) and you make me cry

(YI-YI-YI-YI!)
 Ab Bb Eb 
But if you leave me (aaahhhhhhh) I will surely die.

CHORUS:
                     Cm Eb 
Darling, there will never be another..cause I 
          Cm 
love you so.
            Ab Bb 
Don't ever leave me..say you'll never go.

#4.
 Ab Gm Eb 
I will always want you for my sweetheart.
                    Cm 
No matter what you do.
     Ab Bb Eb Cm 
Oh! Carol..I'm so in love with you.

OUTRO:
 Eb Cm Eb 
Carol! (ah-ah-ah-ohh) Carol! Carol! (ah-ah-ah)
 Cm Eb Cm 
Carol! Carol! Carol! (Fade.)



A sixties smash from Kraziekhat.

Oh God chords – Mars Hill

 Verse 1
           Am G/B C G 
In the valley, oh God You’re near
        Am G/B C F 
In the quiet, oh God You’re near
        Am G/B C G 
In the shadow, oh God You’re near
        Am G/B C F 
At my breaking, oh God You’re near
Chorus
 C F Am G/B  
Oh God, You never leave my side
 C F Am G/B 
Your love, will stand firm for all my life
Verse 2
In my searching, oh God You’re near
In my wandering, oh God You’re near
When I feel alone, oh God You’re near
At my lowest, oh God You’re near
Bridge
 Em F Am 
Height nor depth nor anything else, 
       G 
Could pull us apart
        Em F Am G 
We are joined as one, by Your blood
 Em F Am  
Hope will rise, as we become more,
      G 
Than conquerors through, 
     Em F Am G 
The one who loved the world
 (2x)
Chorus 2
    Am F C Em  
Oh God, You never leave my side
      Am F C Em 
Your love, will stand firm for all my life
 

Oh Had I A Golden Thread chords – Pete Seeger

 Credit goes to the late "Spike" at Spike's Music Forum for this tab.(http://
spikesmusic-folk.spike-jamie.com/Pete-Seeger.html)

 G G C C G D  
OH HAD I A GOLDEN THREAD AND NEEDLE SO FINE 
 G G C C G D7 D7  
I’D WEAVE A MAGIC STRAND OF RAINBOW DESIGN 
 C G D7 G G G  
OF RAINBOW DESIGN 
 

IN IT I’D WEAVE THE BRAVERY OF WOMEN GIVING BIRTH 
IN IT I WOULD WEAVE THE INNOCENCE OF CHILDREN OVER ALL THE EARTH 
CHILDREN OF ALL EARTH 
 
FAR OVER THE WATERS I’D REACH MY MAGIC BAND 
THROUGH FOREIGN CITIES TO EVERY SINGLE LAND 
TO EVERY LAND 
 
SHOW MY BROTHERS AND SISTERS MY RAINBOW DESIGN 
BIND UP THIS SORRY WORLD WITH HAND AND HEART AND MIND 
HAND AND HEART AND MIND 
 
FAR OVER THE WATERS I’D REACH MY MAGIC BAND 
TO EVERY HUMAN BEING SO THEY WOULD UNDERSTAND 
SO THEY’D UNDERSTAND 
 
I’D WEAVE AN END TO BUNS AND BOMBS 
BURY THEM UNDER CONCRETE FLOORS 
THE DAYS OF ANGER END AND THERE BE NO MORE WARS 
THERE BE NO MORE 
            (This verse by Bill Goodman, in Chicago) 
 
I’D WEAVE A LAND OF PARKS WHERE PEOPLE CAN BE AT PEACE 
THE LAND WILL BE SPARKLING CLEAN AND THERE BE A CLEAR BREEZE 
AND THERE BE A CLEAR BREEZE 
 
IN IT I’D WEAVE THE DIGNITY OF FOLKS IN EVERY LAND 
IN IT I’D WEAVE JUSTICE TO STRENGTHEN EVERY STRAND 
EVERY STRAND 
            (These two verses by Paula Belsey, in Oregon)

Endseekers intro Tabs by Oh Sleeper

 These are the long notes that ring in the start and chorus of the song
Endseekers by Oh Sleeper.


Let each note ring.

Intro
D:-10----12-11------15--|b
A:----------------------|
F:----8-----------------|
C:------0------14-13----|
G:----------------------|
C:----------------------|

Chorus
D:-10----13-12-----10-|
A:-------------8-10---|
F:----8---------------|
C:-----0--------------|
G:--------------------|
C:--------------------|

Oh You Are The Roots That Sleep Beneath My Feet And Hold The Earth In Place chords – Bright Eyes V2

 The version that was already up here had the interlude all wrong 
and a lot of the chords were misplaced throughout the song. 
This one should be more accurate. Enjoy!


    D Bm 
I met you through a common friend
           G D 
in the attic of my parent's house
          D Bm  
and though I didn't know it then
    G A  
I soon was finding out
              Bm G 
you are the roots that sleep beneath my feet 
      D A 
and hold the earth in place
              Bm  
each time a faucet opens
 G 
words are spoken
     D A 
the water runs away 
                 G 
and I hear your name
             D 
no, nothing has changed 


 D Bm G D D Bm 
there was this book I read and loved
       G D 
the story of a ship
         D Bm 
who sailed around the world and found
       G A 
that nothing else exists
            Bm 
beyond his own two sails
      G 
and wooden shell 
     D A 
and what is held within
             Bm 
all else is sure to pass
     G  
we clutch and grasp
      D A 
and debate what's truly permanent
                             G 
but when the wind starts to shift
                D 
there's no argument

[Interlude]
    D A  
I sing and drink and sleep on floors
      Bm G               
and try hard not to be annoyed
     F# Bm A 
by all these people worrying about me
   D A   
so when I'm suffering through some awful drive
          
        D G 
you occasionally cross my mind
          D Bm A 
it's my hidden hope that you are still among them

well are you?

[Interlude]
                 D G 
Oh, you are the roots that sleep beneath my feet 
       D A 
and hold the earth in place
               D 
each time a curtain opens
   G 
sunlight pours in
     D A 
a lifetime melts away
              G 
and we share a name
                      D 
on some picturesque grave

Oh Calamity chords – All Time Low V4

 All Time Low's song Oh Calamity Don't Panic. Basically I saw a tab 
using bar chords so I took those chords down three semitones and ended up with 
these chords. So if it's too low to sing, play with a capo on whatever fret feels comfortable.




            Am Em 
When I was younger I was certain that I'd be fine without a queen
        G D 
Just a king inside his castle, with an ocean in between
     Am Em G Em D 
Now all I do is sit and count the miles from you to me. Oh, Calamity...

        Am Em 
We get older by the hour, watch the changes from afar
         G D 
Keep forgetting to remember, where we've been is who we are
     Am G D Em D 
Now all I do is wonder why we ever set the scene. Oh, Calamity...

             C G D        
It's such a shame that we play strangers,
 Em C G D 
No act to change what we've become.
 Em C G Bm Am 
Damn, it's such a shame that we built a wreck out of me,
        Em D Em D 
Oh, Calamity... Oh, Calamity...


            Am Em 
I'll remember nights alone, and waking up to dial tones
        G D 
Always found my greatest moments, in the sound of your hello's
        Am Em G Em D 
Now I struggle to recall the reasons you would come to leave. Oh, Calamity...


             C G D        
It's such a shame that we play strangers,
 Em C G D 
No act to change what we've become.
 Em C G Bm Am 
Damn, it's such a shame that we built a wreck out of me,
        Em D Em D 
Oh, Calamity... Oh, Calamity...


        Am Em 
If I catch you on the corner, will you even know it's me?
         G D 
Will I look familiar to you? Do you offer me a seat?
    Am Em G Em D 
Can we find a new beginning? Do you turn the other cheek? Oh, Calamity...


              C G D        
It's such a shame that we play strangers,
 Em C G D 
No act to change what we've become...
   

                    C G D    
Damn, it's such a shame that we play strangers,

 Em C G D 
No act to change what we've become.
 Em C G Bm Am 
Damn, it's such a shame that we built a wreck out of me,
        Em D Em D 
Oh, Calamity... Oh, Calamity...


        Em D G 
Oh, Calamity, come back to me...

In Memoriam chords – The Oh Hellos V2

 The Oh Hellos - In Memoriam
Capo 2

Here's the chords.  I didn't write in all the chords for the 2nd and 3rd verses 
but they follow the same pattern as the first verse.

Intro:
 C Am C Am Am C Am   
well, it's a long way out to reach the sea 
                    C Am 
but I'm sure I'll find you waiting there for me 
             C G 
and by the time I blink, I'll see your wild arms swinging 
          Am F 
just to meet me in the middle of the road 
            Am F 
and you'll hold me like you'll never let me go 
       Am G 
and beside the salty water, I could hold you close, 
              C Am C Am 
but you are far too beautiful to love me 


it's a long climb up the dusty mountain 
to build a turret tall enough to keep you out 
but when you wage your wars against the one who adores you, 
then you'll never know the treasure that you're worth 
but I've never been a wealthy one before 
I've got holes in my pockets burned by liars' gold, 
                  C Am C Am 
and I think I'm far too poor for you to want me 


Between verses:

 C G Am F Am F Am G C Am C Am C G C Am C Am 
it's been a long road, losing all I've owned 
and you don't know what you've got until you're gone 
and it's a nasty habit, spending all you have, but 
when you're doing all the leaving, then it's never your love lost 
and if you leave before the start, then there was never love at all 
and heaven knows I'm prone to leave the only God I should have loved, 
and yet you're far too beautiful to leave me

Oh Well Tabs by The Demics

 The Demics
"Oh Well" tab
Talk's Cheap EP

Intro/Chorus: (2x)

E|-----------------------------------------------------------------------------------------|
B|-----------------------------------------------------------------------------------------|
G|--------------7--7--7--7--9--9--9--9--7--7--7--7--------------------------7--7--7--7-----|
D|--7--7--7--7--7--7--7--7--9--9--9--9--7--7--7--7--7--7--7--7--5--5--5--5--7--7--7--7--7--|
A|--7--7--7--7--5--5--5--5--7--7--7--7--5--5--5--5--7--7--7--7--5--5--5--5--5--5--5--5--7--|
E|--5--5--5--5--------------------------------------5--5--5--5--3--3--3--3--------------5--|


Verse: (3x)

E|--------------------------------------------------|
B|--------------------------------------------------|
G|--------------------------------------------------|
D|--7--7--7--7--7--7--7--7--5--5--5--5--5--5--5--5--|
A|--7--7--7--7--7--7--7--7--5--5--5--5--5--5--5--5--|
E|--5--5--5--5--5--5--5--5--3--3--3--3--3--3--3--3--|

Pre-Chorus:

E|--------------------------------------------------|
B|--------------------------------------------------|
G|--------------7--7--7--7--------------------------|
D|--7--7--7--7--7--7--7--7--5--5--5--5--5--5--5--5--|
A|--7--7--7--7--5--5--5--5--5--5--5--5--5--5--5--5--|
E|--5--5--5--5--------------3--3--3--3--3--3--3--3--|

Lyrics:
Just another sunny day, pretending like there's rain.
Don't seem to get my way, again and again.
Shrugging my shoulders, and im out another like,
Something very apathetic.
Oh well, got my crazy passion, lock me inside of my room, Oh Well
Oh well, got my crazy passion, lock me inside of my room, Oh Well
I just wish to be left to myself
if i was a jar id be content upon the shelf
The only one there that unite us two together seems so unsympathetic
Oh well, got my crazy passion, lock me inside of my room, Oh Well
Oh well, got my crazy passion, lock me inside of my room, Oh Well!

In Order:
Intro (2x)
Verse (3x)
Pre-Chorus
Chorus
Verse (3x)
Pre-Chorus
Chorus

And there you go!

Oh Baby Lie Down chords – Kendel Carson

 SONG: Oh Baby Lie Down
ARTIST: Kendel Carson
WRITTEN BY: Kendel Carson and Chip Taylor
 Alright Dynmaite
: Rob Penfold (rob@robpenfold.com)
Tabbed for The Blue Rodeo Guitar Tab Archive - www.stratomaster.ca


Cappo 2nd fret

Intro
 G  -  D  -  Em  -  C  -  D 


(chorus)
 G D Em C G D   
Oh baby lie down - next to me - next to me
 G D Em C D G  
No worries - no sound - next to me - come on down



 G D Em C G D 
I am naked and cold - place your boots beneath my bed
 G D Em C D G 
Just like the poets of old - whisper the dance inside your head


(chorus)

 G D Em C G D 
Sunshine comes and it flies - darkness comes and it stays
 G D Em C D G 
With just the light in your eyes - that's all that matters anyway



(chorus)

 G D Em C G D 
So this story begins - kiss me there - stay a while
 G D Em C D G    
A candle brushed by the wind - forever burning again



(chorus) x2