Tag: Palm

Where To Start intro Tabs by Newton Faulkner

 hi guys I'm Jordan :) this is my first ever tab I loved this song and found no tabs!!! 
so had to work it by watching him live... 
I have only figured out the intro and i guess its the chorus 
but the bit after that his fingers are moving to quick for my eyes (dam eyes!)

tuning is (B F# C# F# G# C#)

intro:

C#|-0-------------------------------|   C#|-0------------------------------|
G#|--0--------0--0--0--0--0--0--0---|   G#|--0--------0--0--0--0--0--0--0--|
F#|---0h2p0---0--0--0--0--0--0--0---|   F#|---0h2p0---0--0--0--0--0--0--0--|
C#|-4-(slide)-2--2--2--2--2--2--2---|x3 C#|-4-(slide)-5--5--5--5--5--5--5--| 
F#|-----------0--0--0--0--0--0--0---|   F#|----------(thumb slap base)-----|
B |-0--------(thumb slapping base)--|   B |-0------------------------------|

then the chorus: a couple of beats with the palm during this...
harmonics * [slap the strings with right hand for harmonics] 

C#|----------------------|                         C#|-0------|
G#|------12*-------------|                         G#|--3-----|
F#|------12*-----5-5~4p0-|                         F#|---0----|
C#|------12*-------------|  x4 then that ends with C#|----2---|
F#|-0(LET RING)--5-5~4p0-|                         F#|-----0--|
B |------------4p0-------|                         B |------0-|


sorry i aint got the rest i wish i could figure it out i know where its based 
but want to get it till its near 100% complete 
anyway hope you guys do ok with this 
and enjoy its a fun song :)

by Jordan reece

Mind Control Tabs by Harms Way

 -------------------------- Mind Control – Harms Way----------------------------
: RapingZombies
Tuning: Drop  B (B Gb B E Ab Db)
Email: mario1@live.com.au   Email me if you see any mistakes so I can fix them.

Key:
| /  slide down
| ~  vibrato
| *  harmonic
| . palm mute

Intro 
Db|------------------------------------------------------|
Ab|------------------------------------------------------|
E |------------------------------------------------------|     
B |-4----0----------------------------444455554444-------|
Gb|-4----0--------555566665555---------------------------|
B |-4----0-----------------------------------------------| X4 
on the 4th time instead of 4 5 4 do this:

Db|--------------------------------------|
Ab|--------------------------------------|
E |--------------------------------------|     
B |--------------------------------------|
Gb|---5-6-5-------4---7---3---4---1---3--|
B |-----------7---4---7---3---4---1---3--|
                  .   .   .   .   .   .   
 
Db|--------------------------------------------------|
Ab|--------------------------------------------------|
E |--------------------------------------------------|     
B |---0-----------0-----------0----------------------|
Gb|0--0-----0--0--0-----0--0--0------0---5-6-5-------|
B |0--0-----0--0--0-----0--0--0------0-----------7---|
   .        .  .        .  .         .
Db|----------------------------------------|
Ab|----------------------------------------|
E |----------------------------------------|     
B |---0-----------0------------------------|
Gb|0--0-----0--0--0------555566665559999---|
B |0--0-----0--0--0------------------------|
   .        .  .             
Db|-------------------------------------------------|
Ab|-------------------------------------------------|
E |-------------------------------------------------|     
B |---0-----------0-----------0---------------------|
Gb|0--0-----0--0--0-----0--0--0------0---5-6-5------|
B |0--0-----0--0--0-----0--0--0------0-----------7--|
        .            .     .             .   .               .
Db|---------------------------------------------|
Ab|---------------------------------------------|
E |---------------------------------------------|     
B |---0-----------0-------------------44445555--|
Gb|0--0-----0--0--0------55556666---------------|
B |0--0-----0--0--0-----------------------------|
   .        .  .             


Db|----------------------------------------------------|
Ab|----------------------------------------------------|
E |----------------------------------------------------|     
B |---0-----------0-----------0------------------------|
Gb|0--0-----0--0--0-----0--0--0------0---5-6-5---------|
B |0--0-----0--0--0-----0--0--0------0-----------7-----|
   .        .  .        .  .         .
Db|---------------------------------------|
Ab|---------------------------------------|
E |---------------------------------------|     
B |---0-----------0-----------------------|
Gb|0--0-----0--0--0------555566665559999--|
B |0--0-----0--0--0-----------------------|
   .        .  .             
Db|--------------------------------------------------------|
Ab|--------------------------------------------------------|
E |--------------------------------------------------------|     
B |---0-----------0-----------0----------------------------|
Gb|0--0-----0--0--0-----0--0--0------0---5-6-5-------------|
B |0--0-----0--0--0-----0--0--0------0-----------7---------|
   .        .  .        .  .         .

Db|----------------------------------|
Ab|----------------------------------|
E |----------------------------------|     
B |---0-----------0------------------|
Gb|0--0-----0--0--0------------------|
B |0--0-----0--0--0----0-------------|
   .        .  .  

Db|---------------------------------------------------------------|
Ab|---------------------------------------------------------------|

Tanks chords – Lets Wrestle

 Lets Wrestle - Tanks
'In The Court Of Wrestling Lets'

: OllietheRocker

Tuning: Standard!

Intro (palm mute power chords then switch to open barre chords on the second time through,
 also on the second time through play the first chord pattern twice rather than changing to Em)

    C Bm F  
e|---------------------------------------------------------------------------|
B|---------------------------------------------------------------------------|
G|-5--5--5--5--5--5--5--5--5--5--5--5--5--5--4--4----------------------------|
D|-5--5--5--5--5--5--5--5--5--5--5--5--5--5--4--4--3--3--3--3--3--3--3--3--3-|
A|-3--3--3--3--3--3--3--3--3--3--3--3--3--3--2--2--3--3--3--3--3--3--3--3--3-|
E|-X--X--X--X--X--X--X--X--X--X--X--X--X--X--X--X--1--1--1--1--1--1--1--1--1-|

             Dm C Em F 
e|---------------------------------------------------------------------------|
B|---------------------------------------------------------------------------|
G|----------7--7--5--5--5--5--5--5--5--5--5--5--5--5--5--5--9--9-------------|
D|-3--3--3--7--7--5--5--5--5--5--5--5--5--5--5--5--5--5--5--9--9--3--3--3--3-|
A|-3--3--3--5--5--3--3--3--3--3--3--3--3--3--3--3--3--3--3--7--7--3--3--3--3-|
E|-1--1--1--X--X--X--X--X--X--X--X--X--X--X--X--X--X--X--X--X--X--1--1--1--1-|

e|---------------------------------------------------------------------------|
B|---------------------------------------------------------------------------|
G|---------------------------------------------------------------------------|
D|-3--3--3--3--3--3--3--3--3--3----------------------------------------------|
A|-3--3--3--3--3--3--3--3--3--3----------------------------------------------|
E|-1--1--1--1--1--1--1--1--1--1----------------------------------------------|


or think of it as, 2 downward strums per beat, 7 beats on C, 1 beat on Bm, 7 on F 
and then 1 beat on Dm etc.

Verse 1
 C Am Dm  
My belief is that we fight and we bleed,
           Am Dm               
And never find what we need to carry on
 C Am Dm 
And my belief is that we lie in the dirt,
               Am Dm C 
And can't get rid of all this hurt and carry on

Chorus
 Em G 
Not a squadron of tanks,
 G C 
Or soldiers of different ranks could save us!
 Em G 
Not a fleet of policemen or,
 G C 
faith or religion could give me the guts to talk to you again

Verse 2
 C Am Dm 
why don't you stop wasting your time,
                   Am Dm 
because I've been wasting my time for far too long.
 C Am Dm 
and when you realize what you have done,
            Am Dm C       
I hope you come and find me and say that you were wrong

Chorus
 Em G 
Not a squadron of tanks,
 G C 
Or soldiers of different ranks could save us!
 Em G 
Not a fleet of policemen or,
 G C 
faith or religion could give me the guts to talk to you again

Bridge
 C Bm F Dm               
oh, oh oh, oh ohhhhh, oooh
 C G F Dm 
oooh hoh-ohoh      ooooh
 C Bm F Dm 
oh, oh oh, oh ohhhhh, oooh
 C G F Dm  
hoh-hoho, oh, oh oooh

 C C 

Chorus
 Em G 
Not a squadron of tanks,
 G C 
Or soldier

Elevator Days Acoustic Tabs by Mixtapes

 Mixtapes
Elevator Days (Acoustic)
Ordinary Silence

Based on:


Guitar 1: Ryan Rockwell
Intro:
E-4-7-9----4-7-9-----|
B-------7--------7-5-|
G--------------------|
D--------------------|
A------(4x)----------|
E--------------------|

Verse:
E A B A 2X

Pre-Chorus:
E-------------------------------|
B-------------------------------|
G-8-9-8-9-6-8-6-8-4-6-4-6-2-4-2-|
D-------------------------------|
A-------------------------------|
E-------------------------------|

And other nights where I had...
A B E E 2X

Cause recklessly...
A C# E

Chorus:
E A B A 2X

Post-Chorus:
E-------------|
B-------------|
G-------------|
D--6-7--9-11--|
A-------------|
E-------------|

And other nights where I had...
A B E E 2X

Solo:
E-4-7-9-------4-7-9------12-11-12-11-12-11-12-11----------------------|
B-------7-7--7------7-5--------------------------12-12-12-12-12-12-12-|
G---------------------------------------------------------------------|
D---------------------------------------------------------------------|
A---------------------------------------------------------------------|
E---------------------------------------------------------------------|

E-12-14-16-14-12-----|-------12-14-16----12-14-16-21-21-21-21-21-|
B-----------------14-|-14-14----------14-------------------------|
G--------------------|-------------------------------------------|
D------(2X)----------|-------------------------------------------|
A--------------------|-------------------------------------------|
E--------------------|-------------------------------------------|

E



Guitar 2: Maura Weaver
Intro/Verse: I'm not discussing this now...
2nd time palm muted
E--(4x)--
B---------|
G-9-------|
D-9-7-9-7-|
A-7-7-9-7-|
E---5-7-5-|

Pre-Chorus: And other nights where I had...
E-(16x)-|--------(2x)---------|
B-------|---------------------|
G---9---|-----99------99------|
D---9---|-7-9-99-6976-99-6976-|
A---7---|-7-9-77------77------|
E-------|-5-7-----------------|

This whole discussion and talk
3 & 4th time palm muted
E--(4x)--
B---------|
G-9-------|
D-9-7-9-7-|
A-7-7-9-7-|
E---5-7-5-|

And other nights where I had...
E--(2x)--
B---------|
G-----9-9-|
D-7-9-9-9-|
A-7-9-7-7-|
E-5-7-----|

Solo...     I'm really working on me
E--(2x)---|----|
B---------|----|
G-9-------|-9~-|
D-9-7-9-7-|-9~-|
A-7-7-9-7-|-7~-|
E---5-7-5-|----|

Questions?
Email at cory.roesch

It Must Have Been Love chords – Roxette V5

 It Must Have Been Love - Roxette

Previous tabs were almost complete, but there were some chords missing and there 
are some errors that I corrected in this tab. I entered the chords for solo and 
the right chords for ending... Have fun with this beautiful song! :)


intro    F E C F    2x     ( F E  - play these notes to get in...)

                 
                   C F 
It must have been love, but it's over now...


         C F G 
Lay a whisper on my pillow, leave the winter on the ground
           C F Dm G 
I wake up lonely, there's air of silence in the bedroom and all around
          Am C F G 
Touch me now, I close my eyes and dream away...


                    C F 
It must have been love, but it's over now!
                    Dm Am G 
It must have been good, but I lost it somehow...
                    C F 
It must have been love but it's over now!
                     Dm Am G 
From the moment we touched, till the time had run out...


        C F G 
Make believing we're together, that I'm sheltered by your heart
            C F Dm G 
But in and outside I've turned to water, like a teardrop in your palm
            Am C F G 
And it's a hard winter's day, I dream away...


                    C F 
It must have been love, but it's over now
                    Dm Am G 
It was all that I wanted, now I'm living without
                       C Gm 
It must have been love, but it's over now
                C Bb 
It's where the water flows, it's where the wind blows


solo    Dm C Bb Dm F C Bb Dm C F Bb 
It must have been love, but it's over now 
                    Gm Dm C 
It must have been good, but I lost it somehow...
                    F Bb 
It must have been love but it's over now!
                    Gm Dm C 
From the moment we touched, till the time had run out...

 
                          F Bb 
Yeah, it must have been love, but it's over now 
                    Gm Dm C 
It was all that I wanted, now I'm living without
                    F Cm 
It must have been love, but it's over now
                F Eb 
It's where the water flows, it's where the wind blows


      F 
Whoa-hoa (it must have been love)
           Bb Gm Dm C 
(But it's over now) (but it's over now)  Nooooooow
                  F 
(Must have been love) (it must have been love)
           Bb Gm Dm C 
(But it's over now) (but it's over now)  Nooooooow

Palm Of Your Hand chords – Cake V2

 The verse is I, III7, IV, V and the chorus is I, IV, vi, V. 

Capo is not necessary if tabbed in G. 

Cake - "Palm Of Your Hand"
Intro:  G C Am D  x2

( D )                      G B7 
When the house was standing
                         C D 
You'd never have believed it
                         G B7 
When the house was standing
                         C D 
You'd never have believed

                  G B7 
The bricks and mortar have all given way
      C D G 
At first they resisted but then they began to sway

 G C 
How can you say
 Am D G 
Forever  is at your command
 G C 
How can you say 
 Am D  
The future's in the palm
                        G    ( G C Am D  x2)
In the palm of your hand

                         G B7 
When the house was standing
                         C D 
You'd never have believed it
                         G B7 
When the house was standing
                         C D 
You'd never have believed
              G B7 
That gaping hole was once a foundation
      C D 
Where you stand now were tools in the basement

 G C 
How can you say
 Am D G 
Forever  is at your command
 G C 
How can you say 
 Am D  
The future's in the palm
                        G    ( G C Am D  x2)
In the palm of your hand

The Palm Of Your Wave Tabs by Bibio

 Bibio - The Palm of Your wave (from Ambivalence Avenue).

Standart tuning.

a)

e||--3--------1--------3--------1--------|--10-----10--6--------10-----10--6--------|
B||-----3--3-----3--3-----3--3-----3--3--|------------------------------------------|
G||-----3--0-----3--0-----3--0-----3--0--|----------------7--7----------------7--7--|
D||--------------------------------------|------8---------8--8------8---------8--8--|
A||--------------------------------------|---6---------6---------6---------6--------|
E||--3--------3--------3--------3--------|------------------------------------------|


b)

|------6----------6----------6----------6------|--5-----------------5-----------------|
|--8----------8----------8----------8----------|-----------6-----------------6--------|
|----------------------------------------------|--------------------------------------|
|---------10---------10---------10---------10--|--------8--------8--------8--------8--|
|-----10---------10---------10---------10------|-----8--------8--------8--------8-----|
|--8----------8----------8----------8----------|--6--------6--------6--------6--------|

|--------------------------------------|--------------------------------------|
|-----4--------4--------4--------4-----|-----4--------4--------4--------4-----|
|--7--------7--------7--------7--------|--7--------7--------7--------7--------|
|--------8--------8--------8--------8--|--------0--------0--------0--------0--|
|--6--------6--------6--------6--------|-----8--------8--------8--------8-----|
|--------------------------------------|--6--------6--------6--------6--------|

c)

|--3----------|
|--3----------|
|--3----------|
|--5----------|
|-------------|
|-------------|


Intro.   
a) - x1
(Humble)

Verse 1. 
[Play a) 3 times]

Hoping this train gets lost on the way here
To lengthen the wait, to stretch out the day longer
The night is so cold, the wind cuts us both stronger

Chorus.
[Play b) once.]

Oh, this moment
Just be forever

etc.


Outro.
Play a) once and then end with c)

Jesse Ar Tabs by Said The Whale

 This is the only tab for Jesse, Ar I have seen on the internet so far. It's a great song 
and it's not that hard to play, just listen to it to figure out the rythm and if you 
see anything wrong with this tab don't hesitate to point it out!


Intro (Rythm)

E----------------------------------|
B----------------------------------|
G----------------------------------|
D----------------------------------|   x4
A---7---7---7---7---7---7---7---7--|
E-0---0---0---0---0---0---0---0----|

E------------------|
B------------------|
G-1-1-1-1-1-1-1-1--|
D-2-2-2-2-2-2-2-2--|   palm muted, x2
A-2-2-2-2-2-2-2-2--|
E-0-0-0-0-0-0-0-0--|


Intro (Lead)

E----------12-11------------------------|
B-12-14----------14-12-------12---------|
G-------13-------------13-11----13-11-9-|
D---------------------------------------|
A---------------------------------------|
E---------------------------------------|


Verse (Rythm)

Jesse came from Arkansas...
E----------------------------------|
B----------------------------------|
G-1-1--1-1--1-1--6-6-6-6-----------|
D-2-2--2-2--2-2--7-7-7-7-----------| x8 (No singing the first 4 times, the lead plays 
during these 4 times)
A-2-2--2-2--2-2--7-7-7-7-----------|
E-0-0--0-0--0-0--5-5-5-5-----------|


Verse (Lead)

E----------------------------------12---------------------------------|
B-12-12-12-12-12-12-12-12-12-12-14----14-12---------------------------|
G-------------------------------------------13-13-13-13-13-13-13-13---|
D---------------------------------------------------------------------|
A---------------------------------------------------------------------|
E---------------------------------------------------------------------|

E---------------------------------------------------------------------------|
B----------------12----------------------------------------------12---------|
G-11-11-11-11-13----13-11-------------------------11-11-11-11-13----13-11---|
D-------------------------14-14-14-14-14-14-14-14---------------------------|
A---------------------------------------------------------------------------|
E---------------------------------------------------------------------------|

E-------------------------------------14-12-------12|
B-------------------------------------------14-12---|
G---------------------------------------------------|
D-14-14-14-14-14-14-14-14-14-14-14-14---------------|
A---------------------------------------------------|
E---------------------------------------------------|


Pre-chorus

So he headed out to Edmonton...
E------------------|
B------------------|
G-6-6-6-6-6-6-6-6--|
D-7-7-7-7-7-7-7-7--|  x4
A-7-7-7-7-7-7-7-7--|
E-5-5-5-5-5-5-5-5--|


Verse (Rythm)

Didn't take a couple months...
E----------------------------------|
B----------------------------------|
G-1-1--1-1--1-1--6-6-6-6-----------|
D-2-2--2-2--2-2--7-7-7-7-----------| x6 (No singing the first 2 times)
A-2-2--2-2--2-2--7-7-7-7-----------|
E-0-0--0-0--0-0--5-5-5-5-----------|


Pre-chorus

So he brought her back to Little Rock...
E------------------|
B------------------|
G-6-6-6-6-6-6-6-6--|
D-7-7-7-7-7-7-7-7--|  x4
A-7-7-7-7-7-7-7-7--|
E-5-5-5-5-5-5-5-5--|


Chorus

Restless eyes they never sleep for too long...
E---x---x---x----------------------|
B---x---x---x----------------------|
G---x-9-x---x-8-8-9-9--------------|                  7
D-9-x-x-x-7-x-x-x-x-x--------------| x10 (He stops at x the 10th time)
A-x-x-7-x-x-x-6-6-7-7--------------|                  5
E-7-x---x-5-x----------------------|


Verse (Rythm)

Didn't take a couple months...
E----------------------------------|
B----------------------------------|
G-1-1--1-1--1-1--6-6-6-6-----------|
D-2-2--2-2--2-2--7-7-7-7-----------| x6 (No singing the first 2 times)
A-2-2--2-2--2-2--7-7-7-7-----------|
E-0-0--0-0--0-0--5-5-5-5-----------|


Verse (Lead)

E----------------------------------12----------------

Pretty In Pink Tabs by Social Distortion

 Artisit: Social Distortion
Song: Pretty in Pink 
: Mike Layton (Laytonium@wowway.com)

Intro:

eb|---------------------------------------|
Bb|---------------------------------------|
Gb|--8-8-8-8-8--5-3-----------------------|
Db|--8-8-8-8-8--5-3--6-6-6-6-6-8-8-8-8-8--|
Ab|--6-6-6-6-6--3-1--6-6-6-6-6-8-8-8-8-8--|
Eb|------------------4-4-4-4-4-6-6-6-6-6--|

Verse:

eb|-------------------------------------------|
Bb|-------------------------------------------|
Gb|--8-8-8-8-8-6-6-6-6-6----------------------|
Db|--8-8-8-8-8-6-6-6-6-6-3-3-5-5-6-6-8-8-8-8--|
Ab|--6-6-6-6-6-4-4-4-4-4-3-3-5-5-6-6-8-8-8-8--|
Eb|----------------------1-1-3-3-4-4-6-6-6-6--|
(alternate palm mute and open, listen to the song and you will get the rhythm)

Chorus:

eb|------------------|
Bb|------------------|
Gb|------------------|
Db|--3~--5~--6~--5~--|
Ab|--3~--5~--6~--5~--|
Eb|--1~--3~--4~--3~--|

(Verse 2)
(Chorus)
(Intro)
(Verse 3)
(Chorus)
(Intro)

If You Dont Dont Tabs by Jimmy Eat World V3

 -------------------------------------------------------------------------------
                             If You Don't, Don't - Jimmy Eat World
-------------------------------------------------------------------------------
Tabbed by: Patrick Bolter
E-mail: patric@hotmail.com.au

Tuning:
Guitar 1: Standard (EADGBE)
Guitar 2: Drop D (DADGBE)

NOTES:
This is tabbed from the album version and a live version (found on the 2004 "Believe In
What You Want" DVD). I posted a tab about a month ago that was far from right, but while
my guitar had no strings in it I picked up my bass and played to the song, figuring out 
how it actually sounds.

Intro
************************************************************************
Guitar 1 - flanger with reverser
e|-4----|
B|-4----|
G|-5----|
D|-6----|
A|-6----|
E|------|
No Guitar 2
************************************************************************

Verses
************************************************************************
Guitar 1 - flanger with reverser
e|-4------4-----|
B|-4------4-----|
G|-5------5-----|
D|-6------4-----|
A|-4-x16--4-x16-|
D|-4------4-----|
Guitar 2 - palm muted
e|-----------------|
B|-----------------|
G|-6---------------|
D|-6-x16---4-------|
A|-4-------4--x16--|
D|---------4-------|
************************************************************************

Prechorus
************************************************************************
Guitar 1 - flanger with reverser
e|-4------4-------|
B|-6-x16--7--x16--|
G|-6------6-------|
D|-4------4-------|
A|-4------4-------|
E|-4------4-------|
Guitar 2 - palm muted
e|-----------------------------|
B|-----------------------------|
G|-3-------------6-------------|
D|-3-x16--4------6-x16--6------|
A|-1------4-x16--4------6-x16--|
E|--------4-------------6------|
************************************************************************

Chorus
************************************************************************
Guitar 1 - flanger with reverser
e|-4------4-----|
B|-4------4-----|
G|-6------6-----|
D|-6------4-----|
A|-4--x8--4--x8-|
D|-4------4-----|
Guitar 2 - palm muted
e|-------------------------|
B|-------------------------|
G|-------------------------|
D|-4-----6-----3-----4-----|
A|-4-x8--6-x8--3-x8--4-x8--|
E|-4-----6-----3-----4-----|
************************************************************************

Bridge
************************************************************************
NOTE: This is played differently live. Refer to link below for timing:


************************************************************************
Guitar 1 - flanger with reverser (until the "hoo oo oo oo" comes in)
e|-4------4-----|
B|-4------4-----|
G|-6------6-----|
D|-6------4-----|
A|-4--x8--4--x8-|
D|-4------4-----|
Then play... delay, drive
e|-16-16--------------------16-16--------------------|
B|-------16-14-14-13-14-14--------16-14-14-14-16-18--|
G|---------------------------------------------------|
D|---------------------------------------------------|
A|---------------------------------------------------|
E|---------------------------------------------------|
Guitar 1 continued
e|-16-16-------16-16-----------------|
B|-------16-14-------16-14-14-14-16b-|
G|-----------------------------------|
D|-----------------------------------|
A|-----------------------------------|
E|-----------------------------------|
Guitar 2 - tremolo, drive
e|----4-----4------|
B|--6-----6------6-|
G|-8-----8-----8---|
D|-----------------|
A|-----------------|
E|-----------------|
************************************************************************

Solo - Drive on both guitars, listen for timing
************************************************************************
Guitar 1
e|----------------------------------|
B|----------------------------------|
G|-12-12-10--8-1

Summer Forever Chords – Megan Nicole V2

 Capo: You can play this song with capo on the first fret or no capo.

Intro:  Cadd9 , G ,  D ,  Em7 Cadd9 G 
Phone rings, you're parked outside
 D Em7 
Hair's up, my chucks are tied
 Cadd9     
You got a place in mind
 D Em7 
But I say let's improvise
 Cadd9 
Oh oh oh
       G 
Let's go oh oh
 D            
Straight down the 405
 Em7 
Right past the county line
 Cadd9 G 
Put your arm around me now
 D Em7 
Only got a few more hours
          Cadd9 G 
So let's try to make it count
                 D  
While the sun is
  Em7 Cadd9 
    Shining bright
          G 
Speakers shaking
          D Em7   
Put that old mustang in drive
          Cadd9 G 
Heart is yours for the taking
          D 
We don't have to say goodbye
 Em7 
    If it was summer forever
 Cadd9 
Oh oh oh
              G 
Don't let it go oh oh
              D 
Just kiss me slow oh oh
           Em7 
Whoa oh oh wish it was summer forever
 Cadd9 
Oh oh oh
              G 
Don't let it go oh oh
              D 
Just kiss me slow oh oh
           Em7             
Whoa oh oh wish it was summer forever
 Cadd9 
Hands up and touch the rays
 G 
Jump in and rush the waves
 D 
This world is ours to take
 Em7 
So never let the moment fade
 Cadd9 
Don't oh oh oh
     G 
Let go oh oh
      D 
Just snap a shot right through your shades
             Em7 
Put it in a mental picture frame
          Cadd9 
Put your arm around me now
      G 
Only got a few more hours
          D 
So let's try to make it count
                  Em7 
While the sun is
         Cadd9 
Shining bright
          G 
Speakers shaking
          D Em7 
Put that old mustang in drive
          Cadd9 G 
Heart is yours for the taking
          D Em7 
We don't have to say goodbye

If it was summer forever
 Cadd9 
Oh oh oh
              G 
Don't let it go oh oh
              D 
Just kiss me slow oh oh
            Em7 
Whoa oh oh wish it was summer forever
 Cadd9 
Oh oh oh
              G 
Don't let it go oh oh
              D 
Just kiss me slow oh oh
            Em7 
Whoa oh oh wish it was summer forever
 Cadd9 G D 
       And when the sun goes down
 Em7 
Can we still be together
  Cadd9 G D 
        Don't leave just hold me now
 Em7 
Like it's summer for ever
        Cadd9* (* means palm mute)
Shining bright
          G *
Speakers shaking
          D *                   Em7 
Put that old mustang in drive
          Cadd9 G 
Heart is yours for the taking
          D Em7 
We don't have to say goodbye

If it was summer forever
 Cadd9 
Oh oh oh
              G 
Don't let it go oh oh
              D 
Just kiss me slow oh oh
            Em7 
Whoa oh oh wish it was summer forever
 Cadd9 
Oh oh oh
              G 
Don't let it go oh oh
              D</spa

Noises Tabs by Mike Mains And The Branches

 Intro (palm mute)
C#m G# A E
C#m G# A A
Verse(pm)/Chorus
C#m G# A E
C#m G# A A

e|--------------------------------|
b|--------------------------------|
g|--------------------------------|
a|-14141414-13131313-14-13-11-9---|
d|----------------------------11b-|
E|--------------------------------|

Solo
(14's 13's)
e|--------------------------------|
b|--------------------------------|
g|--------------------------------|
a|-14141414-13131313-14-13-11-9---|
d|----------------------------11b-|
E|--------------------------------|


(12's 11's) 
e|-12121212-11111111-12-11-9---------|
b|---------------------------12-9----|
g|-----------------------------------|
a|-----------------------------------|
d|-----------------------------------|
E|-----------------------------------|

e|-12121212-11111111-16b-------------|
b|-----------------------------------|
g|-----------------------------------|
a|-----------------------------------|
d|-----------------------------------|
E|-----------------------------------|
Bridge
C#m G# A E
C#m G# A E

By Steven

Misc Metal Riff intro Tabs

 -------------------------------------------------------------------------------
                             Misc. Metal Riff
-------------------------------------------------------------------------------
Tabbed by: Andrew

Email: Andrew26nol@gmail.com

Tuning: Drop C

Just some random metal riff I started playing. Sounded pretty cool.
It would be sick as hell if you guys out there want to just add on or somthing and as a 
metal guitarist we
create a collab of just a bunch of sweet tabs we put together, so if you got anything to 
add that you can come
up with email it to me and then post it on UG.

d|---------------------------------------------------------------------------|
A|---------------------------------------------------------------------------|
F|---------------------------------------------------------------------------|
C|---------------------------------------------------------------------------|
G|--8-7--10-8-(7)7h8p7---8-7--10-8-(7)7h8p7----------------------------------|
C|00-0-00--0-0---------00-0-00--0-0------------------------------------------|
  ** * **  * * *       ** * **  * * *
d|---------------------------------------------------------------------------|
A|---------------------------------------------------------------------------|
F|---------------------------------------------------------------------------|
C|-------------------------------------7h10p7--------------------------------|
G|--10-7--8-7-(7)7h8p7-----10--10------------7h10p7--------------------------|
C|88--8-88-8-8---------1010--10--101077--------------------------------------|
  **  * ** * * *       * *   *   * * **

***Those are 10's, not 1's and 0's***

************************************

| /   slide up
| \   slide down
| h   hammer-on
| p   pull-off
| ~   vibrato
| *   Palm Mute
|(n)  Optional Note

************************************

Final Fantasy Ix – Pandemonium The Castle Frozen In Time Tabs

 This is my first ASCII tab, I hope you like it. (The bars are sorted by number) 
The Bar numbering might be jumbled with the chord names.

Game - Final Fantasy IX
Composer - Nobuo Uematsu
Time Signature - 4/4 
Tempo - Quarter Note = 70 (70bpm)
Tuning - Standard E (EADGBE)

DmM7 = Dm (maj 7)

Legend
L - Tied note
x - Dead note
h - Hammer on/Pull off
b - Bend
s - Slide
~ - Vibrato
g - Ghost note
> - Accentuated note
t - Trill
M - Palm mute
. - Staccato
P - Popping (Bass)
S - Slapping (Bass)
+ - Tapping
W - Wide vibrato

Plastic Souvenirs Chords – British India

 -----------------------------------------------------------------
              BRITISH INDIA - Plastic Souvenirs
-----------------------------------------------------------------


Offical Music Video - http://www.youtube.com/watch?v=loByuIXY8tw

Standard Tuning (can also play it in Eb tuning)



(Fill 1 - Repeat as many times as needed)

We hung around our old home town and waited


Got married to a Grecian billionaire
 Cm Ab Eb           (Let Ring)
We need to drink a litre of distraction
 Cm Ab Eb              (Let Ring)
We need to buy a plastic souvenir


(Palm muted)
 Fm Eb       (Fill 2)
And when I woke up you were lying with me
 Fm Eb       (Fill 2)
Got half a mile for every cigarette


 Cm Ab Eb 
Don't you hang up on me, don't you hang up, don't you hang up on me my friend
 Cm Ab Eb 
Don't you hang up on me, don't you hang up, don't you hang up on me again


 Fm Eb 
I wrote it down so that I would remember
 Fm Eb 
That I am you and you are someone else
 Cm Ab Eb 
I swear to god one day you're going to miss me
 Cm Ab Eb   (Fill 3)
I swear to god that I'll miss you as well


 Cm Ab Eb 
Don't you hang up on me, don't you hang up, don't you hang up on me my friend
 Cm Ab Eb 
Don't you hang up on me, don't you hang up, don't you hang up on me again


 Fm Ab 
Because you might need somebody, need somebody
Eb                                             (Fill 2)
And I'm not gonna be there
 Fm Ab 
Because you might need somebody, need somebody
 Eb 
And I'm not gonna be there



Fill 1:

e|----------------------------------------|
B|----------------------------------------|
G|-5-5-5-5-5-5-5-5-5-5-5-5-5-5-5-5--------|
D|--8-8-8-8-8-8-8-8-6-6-6-6-6-6-6-6-------|
A|----------------------------------------|
E|----------------------------------------|


Fill 2:

e|----------------------------------------|
B|----------------------------------------|
G|--12-10-10-8---8------------------------|
D|--x--x--x--x---x------------------------|
A|--10-8--8--6---6------------------------|
E|----------------------------------------|


Fill 3:

e|----------------------------------------|
B|----------------------------------------|
G|-12-12-12-13-13-13-15-15-15-17-17-17----|
D|-x--x--x--x--x--x--x--x--x--x--x--x-----|
A|-10-10-10-11-11-11-13-13-13-15-15-15----|
E|----------------------------------------|


*Not sure if Fill 1 is correct - can't tell if it is that or they might be playing 
octaves of G - some assistance would be appreciated.

Not Coming In Tabs by Dayshell

 Not Coming In Tabs
Artist: Dayshell
Album: Self-Titled
Tab by: http://www.youtube.com/jamesmouamusic

Dayshell - Not Coming In (Official Lyric Video)


Dayshell FB page...
https://www.facebook.com/DayShellMusic

Dayshell Sumerian Records page...
http://sumerianrecords.com/artist/details/id:37/


b: bend
/: slide
*: palm mute
h: hammer on
~: let it ring
p: pinch harmonic
/////: picking tremolo




INTRO(Repeat x2):
C#||---------------------------------------------------------------------|
G#||---------------------------------------------------------------------|
 E||-------------0-------------------------------------------------------|
 B||-----10--------------------------------10----------------------------|
F#||---8-------3------12---10---12---10h12-------------------------------|
 B||-8-------3-----------0----0----0-------------------------------------|
                         *    *    *

C#||---------------------------------------------------------------------|
G#||---------------------------------------------------------------------|
 E||------------------------------------------------------------------0--|
 B||------------------------10-----------------------10-------10---------|
F#||---12---10---12---10h12------12---10---12--10h12--------8-------3----|
 B||-0----0----0----0---------------0----0---0------------8-------3------|
     *    *    *    *               *    *   *  * *

C#||----|
G#||----|
 E||----|
 B||-0~-|
F#||-0~-|
 B||-0~-| (Play 2nd time only)



[VERSE]



CHORUS:
C#||---------------------------------------------------------------------|
G#||---------------------------------------------------------------------|
 E||-------------0-------------------------------------------------------|
 B||-----10--------------------------------------------------------------|
F#||---8-------3---------------------------------------------------------|
 B||-8-------3------0-00-00-0000---0-0-00-0000---0-0-00-0000-------------|

C#||---------------------------------------------------------------------|
G#||---------------------------------------------------------------------|
 E||---------------------------------------------------------------------|
 B||-14-14-17-12-12-12---14-1414-1414-14141414---17-17-1717-17171717-----|
F#||-x--x--x--x--x--x----x--x-x--x-x--x-x-x-x----x--x--x-x--x-x-x-x------|
 B||-12-12-15-10-10-10---12-1212-1212-12121212---15-15-1515-15151515-----|

C#||---------------------------------------------------------------------|
G#||---------------------------------------------------------------------|
 E||-----------------------------------0---------------------------------|
 B||-12-12-1212-12121212-------10--------------0~------------------------|
F#||-x--x---x-x--x-x-x-x-----8-------3---------0~------------------------|
 B||-10-10-1010-10101010---8-------3-----------0~------------------------|



[VERSE]



CHORUS:
C#||---------------------------------------------------------------------|
G#||---------------------------------------------------------------------|
 E||-------------0-------------------------------------------------------|
 B||-----10--------------------------------------------------------------|
F#||---8-------3---------------------------------------------------------|
 B||-8-------3------0-00-00-0000---0-0-00-0000---0-0-00-0000-------------|

C#||---------------------------------------------------------------------|
G#||---------------------------------------------------------------------|
 E||---------------------------------------------------------------------|
 B||-14-14-17-12-12-12---14-1414-1414-14141414---17-17-1717-17171717-----|
F#||-x--x--x--x--x--x----x--x-x--x-x--x-x-x-x----x--x--x-x--x-x-x-x------|
 B||-12-12-15-10-10-10---12-1212-1212-12121212---15-15-1515-15151515-----|

C#||-----------------------------------------------------------

Move Like You Stole It Chords – Zz Ward V2

 Zz Ward - Move Like You Stole It
Capo 3rd       Fdim7 = 3434

Intro   Am    ||x2 (palm mute)

Verse 1
                 Am 
Mmm, I want you in my bed in a minute flat,
                F 
Let's hit the backseat of your cherry Cadillac,
            G 
I bet you never guessed, or came prepared for this,
              D E 
I like your bowtie, glasses on your eyes,
            Am 
You better push that gear down to the fifth,
               F 
And hit that gas pedal with a hell of a kick,
          G 
I wanna feel the heat, your tires grip that street,
                 D E 
I like your straight-A style, Can't wait another mile,

      Am C 
The world ain't ending, but it might as well be,
  G F 
Whoa, I'll rock you like the sea,
  Am C 
Buildings ain't crumblin', but they might as well be,
  G F 
Whoa, so let's not think and just,

Chorus
 D F Am D F Am D C 
Whoooo  Move like you stole it, Whoooo    Move, hurry,
 D F Am D F Am 
Whoooo  Move like you stole it, Make your move on me,


Verse 2
            Am 
I see your hands start tremblin' when I touch you there,
               F 
I watch your jaw drop open with an eager stare,
             G 
I'll be your dream tonight, your wish has come to life,
               D E 
Don't wanna change my mind, So don't you take your time,
      Am C 
The world ain't ending, but it might as well be,
  G F 
Whoa, I'll rock you like the sea,
  Am C 
Buildings ain't crumblin', but they might as well be,
  G F 
Whoa, so let's not think and just,

Chorus
 D F Am D F Am D C 
Whoooo  Move like you stole it, Whoooo    Move, hurry,
 D F Am D F Am 
Whoooo  Move like you stole it, Make your move on me,

Bridge
 Am 
 You better do it like it's twenty-five to life,
 G 
 Two steps from the yard, one man behind bars,
 F 
Move on, move on, move on me,
                  E 
Better get your move on like you stole something,
 Am 
 You better do it like the sky just caught on fire,
 F 
 Move on, move on, move on me,
                 Fdim7
Better get your move on like you stole something,

      Am C 
The world ain't ending, but it might as well be,
  G F 
Whoa, I'll rock you like the sea,
  Am C 
Buildings ain't crumblin', but they might as well be,
  G F 
Whoa, so let's not think and just,


Chorus
 D F Am D F Am C 
Whoooo   Move like you stole it, Whoooo      Move, hurry,
 D F Am D F Am 
Whoooo   Move like you stole it, Make your move on me,
 D F Am D F Am 
Whoooo   Move like you stole it, Make your move on me,
 D F Am 
Make your move on me.

Like Jesus Does Chords – Eric Church V6

 Capo on the 5th fret
Standard Tuning
 G Cadd2 D  (Palm Mute)


 G Cadd2 D  
   I'm a long gone Waylon song on vinyl
 G Cadd2 D  
   I'm a back row sinner at a tent revival
           Em D Cadd2 
   But she believes in me like she believes her bible
     D G Cadd2 D  
    And loves me like Jesus does 
Verse 2:
 G Cadd2 D  
  I'm a lead foot leaning on a souped up Chevy
         G Cadd2 D  
  I'm a good ol' boy drinkin' whiskey and rye on the levy
           Em D Cadd2 
  But she carries me when my sins make me heavy
      D G Cadd2 D     
  And loves me like Jesus does
Chorus:
           G Cadd2 
  All the crazy in my dreams
   D G 
  Both my broken wings
        Em Cadd2 D  
  Every single piece of everything I am
           G Cadd2 
  And she knows the man I ain't
          D G 
  She forgives me when I can't
           Em Cadd2 D 
  And the devil man no he don't stand a chance
     D G Cadd2 D 
  'Cause she loves me like Jesus does
Verse 3:
 G Cadd2 D        
  I always thought she'd give up on me one day
            G Cadd2 D       
  Wash her hands of me, leave me starin' down some runway
          Em D Cadd2 
  But I thank God each night and twice on Sunday
        D G Cadd2 
  That she loves me like Jesus does
Chorus:
           G Cadd2 
  All the crazy in my dreams
   D G 
  Both my broken wings
        Em Cadd2 D  
  Every single piece of everything I am
           G Cadd2 
  And she knows the man I ain't
          D G 
  She forgives me when I can't
           Em Cadd2 D 
  And the devil man no he don't stand a chance
     D G Cadd2 D 
  'Cause she loves me like Jesus does

( Single Strum)
 G Cadd2 D    
  I'm a long gone Waylon song on vinyl

Keine Zeit Tabs by Megaherz

 Artist : Megaherz
Song   : Keine Zeit
Album  : Götterdämmerung
Tuning : Drop C# (D# A# F# C# G# C#)
Tab    : Ei5enmann

Duration Legend
---------------
W - whole
H - half
Q - quarter
E - 8th

Tablature Legend
----------------
L  - tied note
x  - dead note
br - bendRelease
lr - let ring
PM - palm mute

=======================================================================================
Section I: Guitars 1 and 2 w/Distortion
=======================================================================================

    E
||------------------|-------------------|-------------------|-------------------|
||------------------|-------------------|-------------------|-------------------|
||*-----------------|-------------------|-------------------|-------------------|
||*-----------------|-------------------|-------------------|-------------------|
||------------------|-------------------|-------------------|-------------------|
||--0-0-7-0-6-0-5-0-|--3-0-5-0-5-6-7-0--|--L-0-7-0-6-0-5-0--|--3-0-5-0-5-6-7-0--|

   E                                            Q    E
|------------------|-------------------|--------------------|------------------||
|------------------|-------------------|--------------------|------------------||
|------------------|-------------------|--------------------|-----------------*||
|------------------|-------------------|--------------------|-----------------*||
|------------------|-------------------|--------------------|------------------||
|--L-0-7-0-6-0-5-0-|--3-0-5-0-5-6-7-3--|--L-3-5-3----3-7-5--|--L-5-7-0-1-1-1-0-||


=======================================================================================
Section II: Guitar 1 w/Distortion
=======================================================================================

    Q                                                 E  Q    E  Q
||--------------|--------------|--------------|-----------------------|
||--------------|--------------|--------------|-----------------------|
||--7--7--7--7--|--7--7--9-10--|--9--7--7--7--|--7----7--5----5--7----|
||--x--x--x--x--|--x--x--x--x--|--x--x--x--x--|--x----x--x----x--x----|
||--5--5--5--5--|--5--5--7--8--|--7--5--5--5--|--5----5--3----3--5----|
||--------------|--------------|--------------|-----------------------|

|--------------|--------------|--------------|--------------||
|--------------|--------------|--------------|--------------||
|--7--7--7--7--|--7--7--7--7--|--6--6--6--6--|--7--7--9--7--||
|--x--x--x--x--|--x--x--x--x--|--x--x--x--x--|--x--x--x--x--||
|--5--5--5--5--|--5--5--5--5--|--4--4--4--4--|--5--5--7--5--||
|--------------|--------------|--------------|--------------||


=======================================================================================
Section II: Guitar 2 w/Distortion
=======================================================================================

    Q
||--------------|--------------|--------------|--------------|
||--------------|--------------|--------------|--------------|
||--------------|--------------|--------------|--------------|
||--8--8--8--8--|--8--8--8--8--|--0--0--0--0--|--0--0--0--0--|
||--8--8--8--8--|--8--8--8--8--|--0--0--0--0--|--0--0--0--0--|
||--8--8--8--8--|--8--8--8--8--|--0--0--0--0--|--0--0--0--0--|

|--------------|--------------|--------------|----------------||
|--------------|--------------|--------------|----------------||
|--------------|--------------|--------------|----------------||
|--8--8--8--8--|--8--8--8--8--|--7--7--7--7--|--8--8--10--10--||
|--8--8--8--8--|--8--8--8--8--|--7--7--7--7--|--8--8--10--10--||
|--8--8--8--8--|--8--8--8--8--|--7--7--7--7--|--8--8--10--10--||


=======================================================================================
Section III: Guitar 1 w/Slight Distortion
=======================================================================================

    Q
lr_______________________________

Hass Mich Liebe Mich Tabs by Stahlmann

 HASS MICH…. LIEBE MICH
PM   ***Only where you can see the points***

Intro/Chorus (x2) 

(x3)
D---------------|
A---------------|
F---------------|
C--3-3--333-33--|
G--3-3--333-33--|
C--1-1--111-11--|
PM      ... ..   
(x1)
D---------------|
A---------------|
F---------------|
C—4h666-6h444-1-|
G—4h666-6h444-1-|
C—4h666-6h444-1-|
PM   ..    ..
Verse (x4)

D--------------|
A--------------|
F--------------|
C—-------------|(with the rhythim all palm mute)
G—-------------|
C—1..-6..-4..--|
PM.   .   . 
Intro/Chorus (x2)

(x3)
D---------------|
A---------------|
F---------------|
C--3-3--333-33--|
G--3-3--333-33--|
C--1-1--111-11--|
PM      ... ..   
(x1)
D---------------|
A---------------|
F---------------|
C—4h666-6h444-1-|
G—4h666-6h444-1-|
C—4h666-6h444-1-|
PM   ..    ..
Verse (x4)

D--------------|
A--------------|
F--------------|
C—-------------|(with the rhythim all palm mute)
G—-------------|
C—1..-6..-4..--|
PM.   .   . 
Intro/Chorus (x2)

(x3)
D---------------|
A---------------|
F---------------|
C--3-3--333-33--|
G--3-3--333-33--|
C--1-1--111-11--|
PM      ... ..   
(x1)
D---------------|
A---------------|
F---------------|
C—4h666-6h444-1-|
G—4h666-6h444-1-|
C—4h666-6h444-1-|
PM   ..    ..
Interlude 

D------------------------|
A------------------------|
F------------------------|
C—3----8----6------------|
G—3----8----6------------|
C—1----6----4---1..6..4..
PM              .  .  .

D---------------------------------------------------------------|
A---------------------------------------------------------------|
F---------------------------------------------------------------|
C—--------------------------------------------------------------|
G—--------------------------------------------------------------|
C-4-3-1-3-4-1--4-3-1-4-3-1—-5-4-3--4-3-1-3-4-1--4-3-1-4-3-1—-7-7|

D------------------------------------------------------------|
A------------------------------------------------------------|
F------------------------------------------------------------|
C—-----------------------------------------------------------|
G—-----------------------------------------------------------|
C-4-3-1-3-4-1--4-3-1-4-3-1—-5-4-3--4-3-1-3-4-1--4-3-1-4-3—-7-|


Intro/Chorus (x4)

(x3)
D---------------|
A---------------|
F---------------|
C--3-3--333-33--|
G--3-3--333-33--|
C--1-1--111-11--|
PM      ... ..   
(x1)
D---------------|
A---------------|
F---------------|
C—4h666-6h444-1-|
G—4h666-6h444-1-|
C—4h666-6h444-1-|
PM   ..    ..