Tag: part

Hordalands Doedskvad Part I Tabs – Taake

 

Taake- Hordaland Doedskvad part I

Tuning :stantard EADGBe

"=Tremolo picking

\m/ Helnorsk svart metall !\m/

        Riff 1

e|----------------------------------------------------------------------------------|
B|------------------------------------------10/11/10--------------------------------|
G|-------------------------------------------9/10/9---------------------------------|      x3
D|----10-9-----10-12-----9-7-9-10-12--10-9---7/8 /7------9-7-5-10----9-7-5-4-"-"----|
A|-0--8--7--0--8--10--0--7-5-7-8--10--8--7------------0--7-5-3-8--0--7-5-3-2-5-7----|
E|-"--"--"--"--"--"---"--"-"-"-"---"--"--"------------"--"-"-"-"--"--"-"-"-"-3-5----|


       Riff 2


          2a                                    2b
|----------------------------|         |-------------------------------------|
|----------------------------|         |-------------------------------------|
|--4--4--4--5---0-0-4--------|         |-4--4--4--5---0-0-0------------------|
|--5--4---5--5--4-2-5-7-5-4--|   x1    |-5--4---5--5--4-2-0-------7-5-4------|x1
|--7--5---------3-3-7--------|         |-7--5---------3-3-2------------------|
|--"--"---------"-"-"--------|         |-"--"---------"-"-3------------------|

2a again ,then :   |-------------------------------------|
                   |-----------------7-5-----------------|
                   |----4--4--4--5---5-5-0---------------|
              2c   |----5--4---5--5--5-5-0------7-5-4----|
                   |----7--5--------"--"-2---------------|
                   |----"--"-------------3---------------|


Riff 1 x3
Riff 2 (a->b->a->c) x1 without the last:  D|--7-5-4--|


                     Riff 3
                                       3a
|--------||------------------------------------------|
|--------||------------------------------------------|
|-4-2----||-------------3p2h3p2----------5------4----| x1
|-4-2----||-2-------2-3----------2---------3--2------|
|-2-0----||-0-0-0-0--------------0-0-0-0-------------|
|--------||------------------------------------------|

                    3b                                    3c                
|------------------------------------------------|  |----------------------------------------|
|------------------------------------------------|  |----------------------------------------|
|-------------3p2h3p2----------------------------|  |------------3p2h3p2------------------4--|
|-2-------2-3---------3---5---5-5-5-5-5-5--------|x1|-2-------2-3----------2---------3--2----|x1
|-0-0-0-0-----------------3---3-3-3-3-3-3--------|  |-0-0-0-0--------------0-0-0-0-0---------|
|------------------------------------------------|  |----------------------------------------|

                      3d
|------------------------------------------------------|
|-------------------------------------------13--13--13-|
|-------------3p2h3p2----------------------------------|
|-2-------2-3---------3---5--5--5--5--5--5-------------|x1
|-0-0-0-0-----------------3--3--3--3--3--3-------------|
|------------------------------------------------------|

Then repeat [3a, 3b]x4

Solo
|-------------------------------------------------------------------------------------------------------|
|-------------------14-15-14-----------------------------------------------------------------------10---|
|-14-14-14-14-14-15------------14---15-14--14\---------------------------------9h10p9h10p9h10p9h10------|
|--------------------------------------------------------------7h8p7h8p7h8p7h8------------------------7-|
|----------------------------------------------7h8p7h8p7h8p7h8------------------------------------------|
|-------------------------------------------------------------------------------------------------------|

 Fill A                              Fill B
|---------------------------------||----------------|
|---------------------------------||----------------|
|---------------------------------||----------------|
|-2-5-5-5-5-5-2---5-5-5-5-5-5-----||----------------|
|-3-3-3-3-3-3-3---3-

Painters Of The Tempest Part Ii Triptych Lux intro Tabs – Ne Obliviscaris

 -------------------------------------------------------------------------------
Painters of the Tempest Pt. 2: Triptych Lux (Intro) – Ne Obliviscaris
-------------------------------------------------------------------------------
: Jeff Cameron
Email: jcameron99
Date: Dec. 1, 2014

Tuning: EADGBe

This song is massive, but I am pretty sure I got the intro / main riff down. 

Hopefully this will help you all get started, enjoy!


e|-------------------------------------------------------------------|
B|-------------------------------------------------------------------|
G|--5---------------5---------5---------------------------5-5-5------|
D|--4---------------4---------4---------------------------4-4-4------|
A|--3---------------3---------3---------------------------3-3-3------|
E|--4---4-4-4-4-4-4-4---4-4-4-4---4-4-4-4-4-4-4-4-4-4-4-4-4-4-4------|
        • • • • • •     • • •     • • • • • • • • • • • •           

e|------------------------------------------------0--------|
B|----------------------------------------------0----------|
G|--8---------------8-9-9---9-------------1---------8^-----|
D|--6---------------6-6-6-6-6-6-2-----------2/6------------|
A|--4---4-4-4-4-4-4-4-4-4-4-----0---0-0-0------------------|
E|---------------------------------------------------------|
        • • • • • •                 • • •                   

e|---------------------------------------------------------|
B|---------------------------------------------------------|
G|--8---------------8-9-9---9-------4-4-4-4-----2-2-2-2----|
D|--6---------------6-6-6---6-6---2-2-2-2-2---4-4-4-4-4----|
A|--4---4-4-4-4-4-4-4-4-4---4---0---0-0-0-0-0---0-0-0-0----|
E|---------------------------------------------------------|
        • • • • • •             •           •               


| /  slide up
| \  slide down
| h  hammer-on
| p  pull-off
| ~  vibrato
| +  harmonic
| x  Mute note
| ^  Bend note up
===============================================================================

Im Not Part Of Me Tabs – Cloud Nothings

 -------------------------------------------------------------------------------
                             Im Not Part of Me - Cloud Nothings
-------------------------------------------------------------------------------
: Asmus Gregersen

Tuning: Standard

The tab is a little incomplete. I haven't tabbed the outro, and also it says nothing about the rhythm.
It would be nice if someone else could finish it. It is based on some live videos from youtube,
including some acoustic versions which are actually really nice. 

Intro
e|-----------------------------------|
B|-----------------------------------|
G|-----------------------------------|
D|-6--8-3--5-------------------------| x2 
A|-6--6-4--4-------------------------|
E|-4--6-4--4-------------------------|

Verse 
e|-----------------------------------|
B|-----------------------------------|
G|------8---5-6-5-5------8--5-6-8----|      Tjek opgang her.
D|-6----8---6-6-6-8---3--8--6-6-6----| x2 
A|-6----6---x-x-x-x---3--6--x-x-x----|
E|-4----6---4-4-4-4---1--6--4-4-4----|

Bridge 
e|-----------------------------------|
B|-9----9---9---------8---9-8--------|
G|-x----12--10--------x---x-x--------| x3
D|-10---10--10--------8---8-8--------|
A|-8----8---8---------6---6-6--------|
E|-----------------------------------|


e|-----------------------------------| 
B|-9---9s8---6-----------------------|
G|-x---x-----6-----------------------|
D|-10--8-----6-----------------------|
A|-8---6-----4-----------------------|
E|-----------------------------------|

e|-----------------------------------|
B|-9---------------------------------|
G|-10------8-------------------------|
D|-10------8-------------------------| x 3 
A|-8-------6-------------------------|
E|-8-------6-------------------------|

e|-----------------------------------| 
B|-9---9s8---6-----------------------|
G|-x---x-----6-----------------------|
D|-10--8-----6-----------------------|
A|-8---6-----4-----------------------|
E|-8---6-----------------------------|

Pre chorus
e|-----------------------------------|
B|-----------------------------------|
G|------------8--6-------------------|
D|-6---6---3--8--6-------------------|
A|-6---4---3--6--4-------------------|
E|-4---4---1-------------------------|

e|-----------------------------------|
B|-----------------------------------|
G|---------10 -8--6------------------| On the last chord: add some dissonance (dont know which note...)
D|-6---6---10--8--6------------------|
A|-6---4---8- -6--4------------------|
E|-4---4-----------------------------|

Chorus 
e|-----------------------------------|
B|-----------------------------------|
G|--------6-----------8--------------|
D|-8------6-----6-----8--------------|
A|-8------4-----6-----6--------------| x2
E|-6------------4--------------------|

e|-----------------------------------|
B|-----------------------------------|
G|--------6-5-----------8------------|
D|-8-10---6-6---6-8---8-8------------|
A|-8-8----4-4---6-6---6-6------------| x2
E|-6-6----------4-4--(6)-------------|

e|-----------------------------------|
B|-----------------------------------|
G|(10)-(10)--------------------------|
D|-11---12---------------------------|
A|-11---11---------------------------|
E|-9----9----------------------------|

Outro 

************************************

| /   slide up
| \   slide down
| h   hammer-on
| p   pull-off
| ~   vibrato
| +   harmonic
| x   Mute note
| b   Bend
| pb  Pre-bend
| br  Bend release
| pbr Pre-bend release
| brb Bend release bend

************************************

Is This The Part chords – One Dollar Short

 INTRO:  Bm ,  G ,  D ,  A 

Verse 1
 Bm A G 
We went out last night
 didn't go as planned

 Bm A G 
Dropped you off around 12

 Bm A G 
Car doors slammed
No look back
I said I was sorry

 Bm A G 
You didn't say goodnight
What have I done that was so wrong?

Chorus
 D A G 
Is this the part that we say it's over?

 D A G 
Is this the part that we say goodbye?

 D A G 
Didn't mean to make you cry,
didn't mean to hurt you

 D A G 
Please believe me when I say

Verse 2
 Bm A G 
Why can't we
Just go back
to how we once were?

 Bm A G 
Why won't you return my calls?

 Bm A G 
Words were said,
the kind that hurt
A promise made, a promise broken

 Bm A G 
We have to work this out, what have I done that was so wrong?

Chorus
 D A G 
Is this the part that we say it's over?

 D A G 
Is this the part that we say goodbye?

 D A G 
Didn't mean to make you cry,
didn't mean to hurt you

 D A G 
Please believe me when I say
 D A G D A G 
I'm sorry
I'm sorry, yeah
I'm sorry
I'm sorry, yeah

Outro
 D A G 
Is this the part where we say (Is this the part where we say) X4

The Theory Of Everything Part 1 chords – Ayreon

 Ayreon - The Theory of Everything Part 1

There Chords were sounded out by RjJena!

Tuning: Standard

Chords:
        EADGBe
 Em      |x79987
 Em (low)|022000
 D       |x59995
 C       |x35553
 Am      |577555
 B       |x24442
 D/F#    |2x023x
 C/G     |332010
 Am7     |x02010
 Gm      |355333
 F       |133211



[Main Riff*]

 Em D C Am Em D C B Em D C Am G D G B 

[Father:]
 Em D C Am  
I'm so close to the answer
 Em D C B 
A dazzling symphony of cosmic strings
 Em D C Am G   
I feel the pulse, vibrating just out of reach
     D G B 
The music of space


 Em D C Am  
One single master equation
 Em (low)    D/F# C/G Am7 B D 
Unification of the great and small
 Em (low)       D/F# C/G Am        
I hear the notes but the arrangement is wrong
         G D G B 
And I'm starting to doubt, but I can't give up now I'm so near

[Mother:]
 C Gm 
Can't you see that I need you out here?
 C Em (low)
And what about our boy?
 F Am              
I think he's got something to give
 G Gm                  [Main Riff*]
What secrets lie... beyond these hollow eyes?

[Father:]
 Em D C Am 
I'm sorry you feel neglected
 Em (low)    D/F# C/G Am7 B D 
But it's clear that you don't understand
 Em D C Am 
I'm aware, and I want to be there
         G D G B C 
I just need some more time, for the answer is blindingly near

[Mother:]
                   Gm 
Are you trying to drive us away
 C Em (low)
Just when we need you most?
 F Am 
You might find he's got something to give
 G Gm                   [--> 03. Patterns]
What secrets lie... beyond these eyes?


Enjoy!

* you can find the main riff here:
http://tabs.ultimate-guitar.com/a/ayreon/the_theory_of_everything_intro_tab.htm

Weight Of Living Part 1 chords – Bastille V5

 Capo 1

INTRO:  C G D  (2x)

            C 
There's an albatross around your neck,
         G 
All the things you've said and the things you've done:
         C 
Can you carry it with no regrets?
         G 
Can you stand the person you've become?

 Em G 
Oh, there's a light,
 Em G 
Oh, oh, oh, there's a light...

 C G Em D 
Your albatross, let it go, let it go.
 C G Em D 
Your albatross, shoot it down, shoot it down
          C G D 
When you just can't shake the heavy weight of living.

          C 
Stepping forward out into the day,
           G 
Shrugging off the dust and memory.
             C 
Though it's soaring still above your head,
       G 
It is out of sight and none shall see.

 Em G 
Oh, there's a light,
 Em G 
Oh, oh, oh, there's a light...

 C G Em D 
Your albatross, let it go, let it go.
 C G Em D 
Your albatross, shoot it down, shoot it down
          C G D 
When you just can't shake the heavy weight of living.
          C G D 
When you just can't seem to shake the weight of living...

          Em C G D 
It's the sun in your eyes, in your eyes.
          Em C G D 
It's the sun in your eyes, in your eyes.
          Em C G D 
It's the sun in your eyes, in your eyes.
          Em C G D 
It's the sun in your eyes, in your eyes.

 C G Em D 
Your albatross, let it go, let it go.
 C G Em D 
Your albatross, shoot it down, shoot it down
          C G D 
When you just can't shake the heavy weight of living.
          C G D 
When you just can't seem to shake the weight of living...
               C G 
The weight of living,
               D 
The weight of living,
               C G 
The weight of living,
               D 
The weight of living.

 C G D  (4x)

Weight Of Living Part 1 chords – Bastille V4

 Weight of Living Part 1 - Bastille
--------------
Original Chords

Easiest Way to play the song: 
Transpose This tab down 1
Capo on 1
---------
VERSE 1

                   C# 
There's an albatross around your neck,
               G# 
All the things you've said,

and the things you've done,
               C# 
Can you carry it with no regrets,
                G# 
Can you stand the person you've become,
 Fm C# G# 
Ooooh there's a light (x2)


CHORUS
 C# G# Fm D# 
Your Albatross, let it go, let it go,
 C# G# Fm D# 
Your Albatross shoot it down, shoot it down
                 C#  
When you just can't shake
        G# D# 
The heavy weight of living

VERSE 2 
                 C# 
Stepping forward out into the day
                 G# 
Shrugging off the dust and memory
                   C# 
Though it's soaring still above your head
              G# 
It is out of sight and none shall see
 Fm C# G# 
Ooooh there's a light (x2)

CHORUS

 C# G# Fm D# 
Your Albatross, let it go, let it go,
 C# G# Fm D# 
Your Albatross shoot it down, shoot it down
                 C#  
When you just can't shake
        G# D# 
The heavy weight of living

BRIDGE

          Fm C# G# D#  
It's the su-u-un in your eyes, in your eyes (x4)

CHORUS

 C# G# Fm D# 
Your Albatross, let it go, let it go,
 C# G# Fm D# 
Your Albatross shoot it down, shoot it down
                 C#  
When you just can't shake
        G# D# 
The heavy weight of living

OUTRO

                 C# G# 
The Weight of Living 
                      D#  
The Weight of Living (x2)

The Hardest Part chords – Nina Nesbitt V2

   
   Hi there!  I love this song. Thanks for the request over
at Live Love Guitar :)  I had never heard it before or even
heard of Nina Nesbitt, now I love her!  Here's the link it
was tabbed to-






STANDARD TUNING w/
CAPO ON 2


Intro
 G Em7 Cadd9  x2


 G Em7 
 Pretend you're happy,  pretend we're fine
 Cadd9 
 I guess that's easier after all this time
 G Em7 
 Talk about other  girls then look in my eyes
 Cadd9 
 I know you still hold on to us inside
        Am7 D 
But we watched that butterfly fly



 G Em7 Cadd9                   
I'd give anything just to be with you again but it's not the right time
     G Em7                  
And I'd give anything just to feel you on my skin
     Cadd9 G Em7 
But it's not the right time and it'll never be the right time, will it?
              Cadd9                                                    
And it might never be the right time and that's the hardest part of it



 G Em7 Cadd9 G Em7 Cadd9 
 I keep you in my mind even, though you've gone
                                                 G                    
Holding on to nothing's easier than, letting go
                    Em7                  
Stuck in the memory  of what has been, just
 Cadd9                   
Please don't love another like you loved me
        Am7 D 
'Cause time doesn't heal, it just leaves me asking why




 G Em7 Cadd9                   
I'd give anything just to be with you again but it's not the right time
     G Em7                  
And I'd give anything just to feel you on my skin
     Cadd9 G Em7 
But it's not the right time and it'll never be the right time, will it?
              Cadd9  -once                                   
And it might never be the right time and that's the hardest part of it



 G Em7 Cadd9 Am7 D 
And I don't know why I feel this way
      G Cadd9 Am7 
If I could I'd change, believe me 
                D G Cadd9  -once
I know that you feel the same, is it too late for saving?
    Am7  -once      Cadd9 
Oh here I go again




        G Em7 Cadd9                   
'Cause I'd give anything just to be with you again but it's not the right time
     G Em7                  
And I'd give anything just to feel you on my skin
     Cadd9 G Em7 
But it's not the right time and it'll never be the right time, will it?
          Cadd9  -once                                               G Em7 
It might never be the right time and that's the hardest part of it
          Cadd9 
It might never be the right time and that's the hardest part of it.



Have fun and RATE :)
cristy♥twilight

The Hardest Part Tabs by Nina Nesbitt

  
  Hi there!  This was a request over at Live Love Guitar.  It is 
another song I'd never heard before and instantly- I'm in love!!  
I had to drop everything I was doing and tab it :))) So thanks
for the request and introducing me to a new artist!

**IMPORTANT NOTES**
When picking- The Em7's are [020000] and during the strumming parts
they're [022033]. And also with the Cadd9- During the picking 
I have it labeled 'Cadd9' but I guess it's really a C/B [032000] but 
when strumming it's a regular ol' Cadd9 [032033].  Got it? :)
Play along with the song to get the timing down.  Here's the link it
was directly tabbed to- 


 


STANDARD TUNING w/
CAPO ON 2



Intro-

    G                    Em7                 Cadd9
e|-------------------------------------------------------------------------------|
B|---------------------------------------------------------0----------------0----|
G|------0--------0----------0--------0----------0-----------------0--------------|
D|----0---0----0---0------0---0----0---0------2---2----2--------2---2----2-------| x2
A|------------------------------------------3--------3--------3--------3---------|
E|--3--------3----------0--------0-----------------------------------------------|



Verse1-

    G                    Em7                 Cadd9
e|-------------------------------------------------------------------------------|
B|-------------------------------------------------------------------------------|
G|------0--------0----------0--------0----------0--------0--------0--------0-----|
D|----0---0----0---0------0---0----0---0------2---2----2---2----2---2----2---2---| x2
A|------------------------------------------3--------3--------3--------3---------|
E|--3--------3----------0--------0-----------------------------------------------|
                         
G                    Em7
Pretend you're happy, pretend we're fine
Cadd9
I guess that's easier after all this time
G                            Em7
Talk about other  girls then look in my eyes
Cadd9
I know you still hold on to us inside



    Am7                 D
e|-----------------------------------------------2-----|
B|--------------------------3--------3--------3--------|
G|-------0--------0-------2---2----2---2----2----------|
D|-----2---2----2-------0--------0--------0------------|
A|---0--------0----------------------------------------|
E|-----------------------------------------------------|

       Am7                    D
But we watched that butterfly fly



Chorus-

    G                    Em7                 Cadd9
e|-------------------------------------------------------------------------------|
B|-------------------------------------------------------------------------------|
G|------0--------0----------0--------0----------0--------0--------0--------0-----| x3
D|----0---0----0---0------0---0----0---0------2---2----2---2----2---2----2---2---|
A|------------------------------------------3--------3--------3--------3---------|
E|--3--------3----------0--------0-----------------------------------------------|


G                         Em7               Cadd9                  
I'd give anything just to be with you again but it's not the right time
    G                         Em7                 
And I'd give anything just to feel you on my skin
    Cadd9                                                    G          Em7
But it's not the right time and it'll never be the right time, will it?
             Cadd9                                                   
And it might never be the right time and that's the hardest part of it




G  Em7 Cadd9


    G                    Em7                 Cadd9
e|-------------------------------------------------------------------------------|
B|---------------------------------------------------------0---------------------|
G|------0--------0----------0-

The Hardest Part chords – Nina Nesbitt

 This song is Peroxide but was only released very recently. I was 
playing about with chords and these sounded alright but are probably not the ones 
Nina plays, i'm not sure! Feel free to correct:)(sorry if this turns out really 
bad this is my first post!)

Capo on 2.

[VERSE 1]

 G C 
Pretend you're happy, pretend we're fine

 Em D 
I guess that's easier after all this time

 G C 
Talk about other girls then look in my eyes

 Em D 
I know you still hold on to us inside

 Am D 
But we watched that butterfly fly

[CHORUS]:

 G Em C D 
I'd give anything just to be with you again but it’s not the right time

 G Em   
And I'd give anything just to feel you on my skin

 C D G C 
But it's not the right time and it'll never be the right time, will it?

              Em D 
And it might never be the right time and that's the hardest part of it

[VERSE 2]

 G C 
I keep you in my mind even though you've gone

 Em D 
Holding on to nothing's easier than letting go

 G C 
Stuck in the memory of what has been

 Em D 
Just please don't love another like you loved me

        Am D 
'Cause time doesn't heal, it just leaves me asking why

[CHORUS]:

 G Em C D 
I'd give anything just to be with you again but it's not the right time

 G Em   
And I'd give anything just to feel you on my skin

 C D G C 
But it's not the right time and it'll never be the right time, will it?

              Em D 
And it might never be the right time and that's the hardest part of it

[VERSE 3]

 Am C 
And I don't know why I feel this way

      G Em 
If I could I'd change, believe me

 Am C G Em 
I know that you feel the same, is it too late for saving?

 D 
Oh here I go again

[CHORUS]:

 G Em C D 
I'd give anything just to be with you again but it's not the right time

 G Em   
And I'd give anything just to feel you on my skin

 C D G C 
But it's not the right time and it'll never be the right time, will it?

              Em D 
And it might never be the right time and that's the hardest part of it

Untouchable Part 2 chords – Anathema V3

 Anathema – Untouchable Part 2 - Chords
Capo on the 3rd fret

 F Fmaj7 
Why I should feel this way
                        C 
Why I should feel this way
                       Fmaj7 
Why I should feel the same 

 F Fmaj7 
Something I cannot say
                    C 
Something I cannot say
                   Fmaj7 
Something I can't explain 

 F Fmaj7 C 
I feel  you    Outside
                   G 
At the edge of my life 

 F Fmaj7 C 
I see you        walk by
             
                   G 
At the edge of my side 

 F Fmaj7 
Why I should follow my heart 
                        C 
Why I should follow my heart
                   Fmaj7 
Why I should fall apart
 F Fmaj7         
Why I should follow my dreams 
                        C 
Why I should follow my dreams
                    Fmaj7 
Why I should be at peace 

 F Fmaj7 C 
I feel   you     outside 
                   G 
At the edge of my life 
 F Fmaj7 C  
I see you       walk by 
                   G 
At the edge of my side 

          F 
I had to let you go 
          Fmaj7 
Into the setting sun 
          C 
I had to let you go 
          G 
To find a way back home 

          F 
I had to let you go
          Fmaj7  
Into the setting sun 
          C 
I had to let you go 
           G 
To find a way back   home

Ocean Will Part chords – Praise And Worship

 Verse 1
       G                
If my heart has grown cold,
            G           
There Your love will unfold;
        Em Bm C D 
As You open my eyes to the work of Your hand.
          G            
When I’m blind to my way,
            G            
There Your Spirit will pray;
        Em Bm C D 
As You open my eyes to the work of Your hand,
        Em Bm C D 
As You open my eyes to the work of Your hand.


Chorus 1:
             G D/F# 
Oceans will part; nations come
        C D G 
At the whisper  of  Your call.
             G D/F# 
Hope will rise; glory shown.
        C D G 
In my life, Your will be done.


Verse 2:
Present suffering may pass,
Lord, Your mercy will last;
As You open my eyes to the work of Your hand.
And my heart will find praise,
I’ll delight in Your way,
As You open my eyes to the work of Your hand,
As You open my eyes to the work of Your hand.

Part Two chords – No Use For A Name V2

 No Use For A Name
Part 2
Keep Them Confused
2005 Fat Wreck Chords
Submitted by: jeremyundergorund41

Key:  C# 

Tuning: Standard EADGBe

Chords used:
 C#  -   x46664
 G#  -   466544
 Bbm  -  x13321
 F#  -   244322
 Ebm  -  x68876
 F  -    133211
 Fm  -   133111
 F#m  -  244222
 G#/C  - x365xx


Intro:  C# -- F# - Fm - Ebm -- G# -- F# -


Verse 1:
 C# 
  I hope that I can
          F# Fm 
seem flawless to you
 Ebm 
   And always take away the
 G# F# 
pain that you'll go through
 C# 
  My impression is not
 F# C# 
always what it seems
        F# G# 
You're more of a reflection
    F# C# G#/C 
of what I used to be so-


Refrain 1:
  Bbm 
-why do I feel
 F# 
hollow when I look
 C# F 
at your photograph? 
     Bbm 
You take down
my fortress
     F# 
and kill me with a
              C# 
smile Please hold
that thought a while 
          G# 
And I'll try to
                 F# 
put you on this path 
   F#m 
I hope you find the
road I couldn't-


Chorus 1:
  C# G# 
-see You won't be by yourself 
      Bbm G# 
I'll live for your problems
     F# C# 
and think of you when I'm gone 
       Fm Bbm F# G# 
Don't worry now it won't be long 


Verse 2:
 C# 
  Once I was you I thought
     F# Fm 
the world was safe 
 Ebm 
   A new perspective
      G# F# 
everybody is insane
 C# 
  Protecting you is
   F# C# 
a paranoid excuse 
   F# 
I know that you'll do 
 G# F# 
better than I 
            C# G#/C 
could ever do and-


Refrain 2:
  Bbm F# 
-thoughts of self-destruction
             C# F 
Are now all buried in the past
     Bbm 
You take down my barricade
     F# 
and melt away my heart
    C# 
If loving hurts so much I
 G# 
want this pain to always
 F# F#m 
last I hope you pass
the test that I have-


Chorus 2:
  C# G# 
-failed You won't
be by yourself
      Bbm 
I'll live for
      G# 
your problems
     F# 
and think of you
          C# 
when I'm gone 
       Fm 
Don't worry now
            Bbm--C#-G#/C-F#-
it won't be long


Interlude: Violin
C#--G#--F#-F#m-


Chorus 3:
    C# 
I apologize to you for
     G# 
the words not spoken yet
       Bbm G# 
Don't want you to look
          F# 
back and live in regret 
      C# Fm 
Some day you'll ask
               Bbm F# G# 
me why I was away


Outro: Silence
C#--F#-Fm-Ebm--G#--F#-C#(hold)

Part Heart chords – Kate Nash

 G A C 
When we first fell
            G A C 
We used to lie in my bed
     G 
But now
          A C 
Where my brain's supposed to be
                   G A C 
there's just some clouds instead
     G A C 
And part of me's living and part of me's dead
         G A C 
And the part of my heart we used to lie in you fled
        G A C 
And it doesn't matter
         G A C 
I still feel the same

        G A C 
And it doesn't matter how many colours I paint my nails
         G A C 
I still feel the same
        G A C 
And it doesn't matter how many times I change my clothes
         G A C 
I still feel the same
        G A C             
And it doesn't matter how much I stay indoors leave the house
         G A C 
I still feel the same
        G A C 
And it doesn't matter how much I have to drink
         G A C 
I still feel the same
        G A C             
And it doesn't matter how loud I play my music
         G A C 
I still feel the same
        G A C             
And it doesn't matter what my good friends tell me
         G A C 
I still feel the same
        G A C             
And it doesn't matter how much I hurt myself
         G A C 
I still feel the same
        G A C 
And it doesn't matter    yeah,
       G A C 
no it doesn't matter
               G 
Cause I still feel the same.

Ecailles De Lune Part Ii Tabs by Alcest

 Guitar 1(clean):
ring out~~~~~~~~~~~~~~~~~~~~~~~~~~~~~~~~~~~~~~~~~~~~~~~~~~~~~~~~~~~~~~

E----------------------------------0----------0--------------------------------|
B------------------------2-------2----------2----------------------------------|
G-------------2---2--4---------4----------4------------------------------------|
D-4-4--4---4----4--------------------------------------------------------------|
A-4-----4------------------4------------4--------------------------------------|
E------------------------------------------------------------------------------|

E----------------------------------0----------0--2-----------------------------|
B------------------------2-------2----------2----------------------------------|
G-------------2---2--4---------4----------4------------------------------------|
D-4-4--4---4----4--------------------------------------------------------------|
A-4-----4------------------4------------4--------------------------------------|
E------------------------------------------------------------------------------|

E----------------------------------0----------0---------------------------------|
B------------------------2-------2----------2-----------------------------------|
G-------------2---2--4---------4----------4-------------------------------------|
D-4-4--4---4----4-----------------------2---------------------------------------|
A-4-----4------------------4----------------------------------------------------|
E-------------------------------------------------------------------------------|


E-----------------0---------------------------------------|-----|
B-----------------0---------------------------------------|-----|
G--------------2-----2----------------------------4-------|-----|
D-2---2--2---2---------2--2--2/4-4-4---4-4-4----4---4---4-|--4--|
A-2--------2-----------------0-0-----0----------------0---|--0--|
E-0--------------------------0-0--------------------------|--0--|




Guitar 2(dist):
E----------------------------------------------------------------------------------------|
B----------------------------------------------------------------------------------------|
G----------------------------------------------------------------------------------------|
D-7-----7-7-7---3-------5----------------------------------------------------------------|
A-5-----7-7-7---1-------3----------------------------------------------------------------|
E-5-----5-5-5---1-------3----------------------------------------------------------------|

Guitar 1(dist):
E----------------------|----------------------|-------------------------|
B--------------------1-|----------------------|-------------------------|
G-7-7--5--7------3-3-3-|-9--9----12----12--10-|-55555555555555333333/1--|
D-7-7--7--7--7---3-3-3-|-10-10------10--------|-------------------------|
A-5-5--------7---1-1---|-10-10----------------|-------------------------|
E-5--------------1-----|-8--------------------|-------------------------|


Guitar 2(dist):
E---------------------------------------------------------|
B---------------------------------------------------------|
G---------------------------------------------------------|
D--8----3-2----5---3-----12----------8----3--2--7---------|
A--8----3-3----5---5-----12----------8----3--3--5--5-7-8--|
E--6----1-1----3---3-----10----------6----1--1--5--5-5-5--|

Guitar 1(dist):
E----------------------------------------------------------------------------------------------0----|
B----1----------1-----------6-----------5------------8------------8----------6----------3---3----3--|
G--3---3------3---3-------5---5-------5---5-------7----7--------7---7------7---7----------2--------2|
D--------3----------3---3-------3---3-------3---5---------5---5-------5---5------0------------------|
A-1----------1--------------------------------------------------------------------------------------|
E----------------------------------------

Weight Of Living Part 1 chords – Bastille V3

 Capo is on the 4th fret


[Intro]

 A E B A 
There's an albatross around your neck,
         E 
All the things you've said,
and the things you've done,
         A 
Can you carry it with no regrets,
          E 
Can you stand the person you've become,

 Cm E 
Ooh there's a light [x2]

 A E Cm B 
Your Albatross, let it go, let it go,
 A E Cm B  
Your Albatross shoot it down, shoot it down
          A    
When you just can't shake
       E B  
The heavy weight of living

           A 
Stepping forward out into the day
            E 
Shrugging off the dust and memory
             A 
Though it's soaring still above your head
       E 
It is out of sight and none shall see

 Cm E 
Oooh there's a light [x2]

 A E Cm B 
Your Albatross, let it go, let it go,
 A E Cm B  
Your Albatross shoot it down, shoot it down
          A    
When you just can't shake
     E B  
The heavy weight of living
           A E 
When you just can't seem to shake
                     B 
The heavy weight of Living

         Cm A E B 
It's the sun in your eyes, in your eyes [x4]

 A E Cm B 
Your Albatross, let it go, let it go,
 A E Cm B  
Your Albatross shoot it down, shoot it down
          A    
When you just can't shake
       E B  
The heavy weight of living
          A E 
When you just can't seem to shake
                     B 
The heavy weight of Living

               A E 
The Weight of Living
               B  
The Weight of Living
               A E 
The Weight of Living
               B  
The Weight of Living

[Outro]
 A E B A E B A E B A E

The Flame chords – Six Part Invention

 Since I haven't found any chords of this song yet.. its up to me to make one. hope you like it.


Intro
 A  -  A  -  B  -  B  (2x)

Verse 1
 A 
Another night slowly closes in
                 B 
And I feel so lonely
 A 
Touching heat freezing on my skin
                 B 
I pretend you still hold me
 C#m A 
I’m going crazy, I’m losing sleep
 C#m A E 
I’m in too far, I’m in way too deep over you
   B A 
I can’t believe you’re gone
 A                                     
You were the first, you’ll be the last

Chorus:
 E B A 
Wherever you go, I’ll be with you
 E B A 
Whatever you want, I’ll give it to you
 E B 
Whenever you need someone
              A 
To lay your heart and head upon
                        C#m B 
Remember, after the fire, after all the rain
         A D 
I will be the flame
         D 
I will be the flame

Verse 2:
 A 
Watching shadows move across the wall
    B 
I feel so frightened
 A 
I wanna run to you, I wanna call
                 B 
But I’ve been hit by lightning
 C#m A 
Just can’t stand up for fallin’ apart

 C#m A E 
Can’t see through this veil across my heart, over you
                 B A 
You’ll always be the one
 A 
You were the first, you’ll be the last

Chorus:
 E B A       
Wherever you go, I’ll be with you
 E B A 
Whatever you want, I’ll give it to you
 E B 
Whenever you need someone
              A 
To lay your heart and head upon.
                        C#m B 
Remember, after the fire, after all the rain
         A D 
I will be the flame
         D 
I will be the flame

ADLIB

Bridge:
 C#m B 
I’m going crazy, I’m losing sleep
 C#m B E 
I’m in too far, I’m in way too deep over you
                 B A 
You’ll always be the one
 A 
You were the first, you’ll be the last

Chorus:
 E B A 
Wherever you go, I’ll be with you
 E B A 
Whatever you want, I’ll give it to you
 E B 
Whenever you need someone
              A 
To lay your heart and head upon.


                C#m B 
Remember, after the fire, after all the rain
         A D 
I will be the flame
 D 
I will be the flame

Whatever you want, I’ll give it to you

Wherever you go, I’ll be with you

And whatever you want, I’ll give it to you


Megadeth The Hardest Part Of Letting Go… Sealed With A Kiss lyrics

You’re such a pretty face
Radiant, I saw you across the room
I knew I had to have you
Thus started the chase
I knew I would do anything to take your hand and make you mine

But I learned long ago
If you love someone you have to let it go
Let it go, Let it go
The hardest part of letting go is saying
Goodbye, Goodbye, Goodbye

Fettered away in a makeshift cell
Beneath the venomous moonlight
Why unleash my plan to watch you fail
The one I held so high

Go to sleep my love
And taste my sweet revenge upon your lips
Sealed with a kiss

(Solo – Broderick)

I return to the masquerade ball
And leave the lone figure weeping
Stone by stone immured in the wall
Forever left in safekeeping

Go to sleep my love
And taste my sweet revenge upon your lips
Sealed with a kiss

But I learned long ago
If you love someone you have to let it go
Let it go, Let it go
The hardest part of letting go is saying
Goodbye, Goodbye, Goodbye
(Goodbye)
(Let it go)

More lyrics: http://www.lyricsmode.com/lyrics/m/megadeth/#share

The Hardest Part of Letting Go… Sealed With a Kiss Lyrics 09 – Megadeth

You’re such a pretty face
Radiant, I saw you across the room
I knew I had to have you
Thus started the chase
I knew I would do anything to take your hand and make you mine

But I learned long ago
If you love someone you have to let it go
Let it go, Let it go
The hardest part of letting go is saying
Goodbye, Goodbye, Goodbye

Fettered away in a makeshift cell
Beneath the venomous moonlight
Why unleash my plan to watch you fail
The one I held so high

Go to sleep my love
And taste my sweet revenge upon your lips
Sealed with a kiss

(Solo – Broderick)

I return to the masquerade ball
And leave the lone figure weeping
Stone by stone immured in the wall
Forever left in safekeeping

Go to sleep my love
And taste my sweet revenge upon your lips
Sealed with a kiss

But I learned long ago
If you love someone you have to let it go
Let it go, Let it go
The hardest part of letting go is saying
Goodbye, Goodbye, Goodbye
(Goodbye)
(Let it go)

 

Thanks to Jonny Shaw for the lyrics. Thanks to Daryl Cloran, Brian, Joe Sopchak for correcting the lyrics.