Tag: passenger

Let Her Go guitar chords by Passenger

Capo 7th fret

[Intro]
    G                F        G               Am    G                  F           G    Am
e|-----0-------------------0-----0----------------0-------0-------------------3p0-------0---|
B|--3-----3--1-------1--------3-----3--1------1-----3--3----3--1-------1----1------1h3--1---|
G|--------------0h2--2--2----------------0h2----0-----------------0h2--2--2-----------------|
D|-------------------3-------------------------------------------------3--------------------|
A|--------------------------------------------0-----------------------------------------0---|
E|----------------------------3---------------------3--3---------------------------3--------|

    G                F        G               Am     G                  F           G    Am
e|-----0-------------------0-----0----------------0--------0-------------------3p0-------0--|
B|--3-----3--1-------1--------3-----3--1------1------3--3----3--1-------1----1------1h3--1--|
G|--------------0h2--2--2----------------0h2----0------------------0h2--2--2----------------|
D|-------------------3--------------------------------------------------3-------------------|
A|--------------------------------------------0------------------------------------------0--|
E|--3-------------------------3----------------------3--3---------------------------3-------|

[Chorus]
                       F                       C
Well you only need the light when it's burning low
              G                       Am
Only miss the sun when it starts to snow
               F                           C       G
Only know you love her when you let her go
                      F                        C
Only know you've been high when you're feeling low
              G                        Am
Only hate the road when you're missin  home
               F                         C
Only know you love her when you've let her go
G
  And you let her go

[Instrumental]
Am   F   G   Em
Am   F   G

[Verse 1]
Am                            F
Staring at the bottom of your glass
        G                            Em
Hoping one day you will make a dream last
               Am               F          G
The dreams come slow and they go so fast
    Am                          F
You see her when you close your eyes
      G                           Em
Maybe one day you will understand why
               Am           F         G
Everything you touch surely dies

[Chorus]
                      F                       C
But you only need the light when it's burning low
              G                       Am
Only miss the sun when it starts to snow
               F                           C       G
Only know you love her when you let her go
                      F                        C
Only know you've been high when you're feeling low
              G                        Am
Only hate the road when you're missin  home
               F                         C       G
Only know you love her when you've let her go

[Verse 2]
Am                            F
Staring at the ceiling in the dark
         G                     Em
Same old empty feeling in your heart
           Am                 F       G
Love comes slow and it goes so fast
         Am                      F
Well you see her when you fall asleep
                G                  Em
But to never to touch and never to keep
                          Am
Because you loved her too much
                  F          G
And you dived too deep

[Chorus]
                       F                       C
Well you only need the light when it's burning low
              G                       Am
Only miss the sun when it starts to snow
               F                           C       G
Only know you love her when you let her go
                      F                        C
Only know you've been high when you're feeling low
              G                         Am
Only hate the road when you're missin'  home
               F                         C         G
Only know you love her when you've let her go

[Bridge]
                Am
And you let her go
      F     G
Ooooo ooooo oooooo
                Am
And you let her go
        F     G
Ooooooo ooooo ooooo
                Am         F    G   Em
And you let her go

[Interlude]
Am    F    G

[Chorus]
                          F                       C
Because you only need the light when it's burning low
              G                       Am
Only miss the sun when it starts to snow
               F                           C       G
Only know you love her when you let her go
                      F                        C
Only know you've been high when you're feeling low
              G                         Am
Only hate the road when you're missin'  home
               F                         C
Only know you love her when you've let her go

[Chorus]
                          F                     C
Because you only need the light when it burning low
              G                       Am
Only miss the sun when it starts to snow
               F                           C       G
Only know you love her when you let her go
N.C.
Only know you've been high when you're feeling low

Only hate the road when you're missin  home

Only know you love her when you've let her go

And you let her go


***********************************

| h   Hammer-on
| p   Pull-off

***********************************

Hotel California chords by Passenger

Capo 6th fret

[Verse]
Am                       E
On a dark desert highway, cool wind in my hair
G                      D
Warm smell of colitas, rising up through the air
F                        C
Up ahead in the distance, I saw a shimmering light
Dm
My head grew heavy and my sight grew dim
E
I had to stop for the night
Am
There she stood in the doorway;
E
I heard the mission bell
G
And I was thinking to myself,
D
"This could be Heaven or this could be Hell"
F                       C
Then she lit up a candle and she showed me the way
Dm
There were voices down the corridor,
E
I thought I heard them say...

[Chorus]
F                         C
Welcome to the Hotel California
E
Such a lovely place (Such a lovely place)
Am
Such a lovely face
F                                C
Plenty of room at the Hotel California
Dm
Any time of year (Any time of year)
Em
You can find it here

[Verse]
Am                           E
Her mind is Tiffany-twisted, she got the Mercedes bends
G                                   D
She got a lot of pretty, pretty boys she calls friends
F                                C
How they dance in the courtyard, sweet summer sweat.
Dm                      E
Some dance to remember, some dance to forget

Am
So I called up the Captain,
E
"Please bring me my wine"
       G                                        D
He said, "We haven't had that spirit here since nineteen sixty nine"
F                                       C
And still those voices are calling from far away,
Dm
Wake you up in the middle of the night
E
Just to hear them say...
 
[Chorus]
F                           C
Welcome to the Hotel California
E
Such a lovely place (Such a lovely place)
Am
Such a lovely face
F                                     C
They livin' it up at the Hotel California
Dm
What a nice surprise (what a nice surprise)
E
Bring your alibis
  
[Verse]
Am
Mirrors on the ceiling,
E
The pink champagne on ice
G                                            D
And she said "We are all just prisoners here, of our own device"
F
And in the master's chambers,
C
They gathered for the feast
Dm
They stab it with their steely knives,
E
But they just can't kill the beast
 
Am
Last thing I remember, I was
E
Running for the door
G
I had to find the passage back
D
To the place I was before
F
"Relax, " said the night man,
C
"We are programmed to receive.
D
You can check-out any time you like,
E
But you can never leave! "

Beautiful Birds solo Tabs – Passenger

 -------------------------------------------------------------------------------
                             Beautiful birds - Passenger
-------------------------------------------------------------------------------

Hi everyone, hope y'all having a happy holiday. 

This is an easy version of tabbing the song that I've created and it sounds accurate. Enjoy!

Capo on 7th fret
  
Intro:
e|---3-2---0-----------------------3-2---0-------------3-2-------------------|
B|-------3-------3---------------------3-------3-----3-----------------------|
G|--0----------0---2---2-4-----2-0-----------0---2-0-------------------------|
D|-------------------0-------0-----------------------------------------------|
A|-----------3-----------------------------3---------------------------------|
E|-0-----------------------3-------------------------------------------------|

e|-3-2---0-------------------------------------------------------------------|
B|-----3-------3-----------------------------0-3---1-1h0---------------------|
G|-----------0---2---2-4-----2-0-------0---0-----0---------------------------|
D|-----------------0-------0-------0h2---2-----------------------------------|
A|---------3---------------------3-------------------------------------------|
E|-----------------------3---------------------------------------------------|


Second tabbing (between the second and third stanzas), almost the same as the first plate: 


e|-3-2---0-----------------------3-2---0-------------3-2---------------------|
B|-0---3-------3---------------------3-------3-----3-------------------------|
G|-0---------0---2---2-4-----2-0-----------0---2-0---------------------------|
D|-0---------------0-------0-------------------------------------------------|
A|---------3-----------------------------3-----------------------------------|
E|-----------------------3---------------------------------------------------|

e|-7-5-3-0-3-2-------0-------------------------------------------------------|
B|-------------3-0-3---3---0-0-1ho-------------------------------------------|
G|-----------------------2---------------------------------------------------|
D|---------------------------------------------------------------------------|
A|---------------------------------------------------------------------------|
E|---------------------------------------------------------------------------|


And than in the end from the last word (cage):

e|----3-2-7---7---7-5-3---3-0-3-2-3-2-3-2---0--------------------------------|
B|---3------------------------------------3-------3--------------------------|
G|--2-------0---0-------0-----------------------0---2---2-4-----2-0----------|
D|-0--------------------------------------------------0-------0--------------|
A|--------------------------------------------3------------------------------|
E|----------------------------------------------------------3----------------|

e|----------------3----------------------------------------------------------|
B|------------0-3-0----------------------------------------------------------|
G|---0------0-----0----------------------------------------------------------|
D|--0h2-2---------0----------------------------------------------------------|
A|-3------3------------------------------------------------------------------|
E|---------------------------------------------------------------------------|



************************************

| /   slide up
| \   slide down
| h   hammer-on
| p   pull-off
| ~   vibrato
| +   harmonic
| x   Mute note
| b   Bend
| pb  Pre-bend
| br  Bend release
| pbr Pre-bend release
| brb Bend release bend

************************************

Holes chords – Passenger V5

 Holes - Passenger

Capo 4

Intro: 4/4||: Am G/B  | C     :||4x

Verse 1:
| Am G/B      | C                      
   I know a man with nothing in his hands, 
| Am G/B      | C  
 nothing but a rolling stone
| Am G/B           | C                     
   He told me bout when his house burnt down, 
    | Am G/B           | C  
 he lost everything he owned
| Am G/B      | C  
   He lay asleep for six whole weeks, 
          | Am G/B        | C  
they were gonna ask his mother to choose
        | Am G/B        | C  
When he woke up with nothing he said I'll tell you something
                | Am G/B        | C  
When you've got nothing, you've got nothing to lose         

Ref I:
               | F                    | C                    
Now I've got a hole in my pocket, a hole in my shirt, 
  | G                        | C 
a whole lot of trouble, he said
            | F              | C                                              
but now the money is gone, life carries on 
      | G                          | C 
and I miss it like a hole in the head!

Interl.  ||: Am G/B  | C     :||4x

Verse 2:
| Am G/B        | C  
  I know a woman with kids around her ankles 
      | Am G/B      | C  
and a baby   on her lap       
         | Am G/B      | C        
she said one day her husband went to get a paper 
       | Am G/B        | C          
and the ...... never came back
| Am G/B         | C  
mortgage to pay and four kids to raise, 
| Am G/B            | C  
keeping the wolf from the door
             | Am (stop)        
she said the wolf's just a puppy 

and the door's double locked so why you gotta worry me for


Ref II:
                 | F                  | C                     
Now he left a in hole in my heart a hole in a promise 
  | G                      | C 
a hole on the side of my bed
   | F                       | C                       
oh now that he's gone well life carries on
      | G                           | C 
and I miss him like a hole in the head


Bridge (slower):
| F      |                   | C                    | G 
       sometimes you can't change and you can't choose
| F     |                         | C                     | G 
  and sometimes it seems you gain  less than you lose


Ref III:
               | Dm           | F                     | C             | G 
Well we've got holes in our hearts, yeah we've got holes in our lives
               | Dm               | F                    | C       | C 
well we've got holes, we've got holes but we carry on
              | Dm           | F                     | C             | G 
say we've got holes in our hearts, yeah we've got holes in our lives
               | Dm               | F                     | C       | C 
well we've got holes, we

The Wrong Direction Acoustic Tabs by Passenger

 ACOUSTIC LIVE VERSION

Passenger The Wrong Direction

Capo 5th fret

--- Scott Gittins---

TRUE acoustic version as heard on Coffeehouse satellite radio and seen on youtube
CARFEULLY  yours truly


Quick note: Intro and beginning verses are assumed to be picking unless the ^ thumb
arrow designates a upflick strum with the thumb designated by TmbSt and any of the xxxx 
is a
chuck / slap on some of the strings. m is mute anywhere in the tab.

This is my first real tab by hand and reverse engineering from a video.  Takes forever,
if you see errors please not and I will fix asap.  Thanks!  Enjoy

| /  slide up
| \  slide down
| h  hammer-on
| p  pull-off
| ~  vibrato
| +  harmonic
| x  chuck – finger clap onto strings
| m  Mute note

Capo 5th fret positions listed are starting from capo (5th is 0)

Intro:
                                                             TmbSt
                 F               C              G5    C5/G   Gadd2
                                                             ^
e|-----------------------------------------------------------3--------|
B|--3/5--5/3p0--1---x--1-1-1--x--1-1-x---3/5/3--3-x-3--1--0--0--x-----|
G|--2/4--4/2p0--0h2-x--0h2p0--x--0-0-x---2/4/2--0-x-0--0--0--0--x-----|
D|--------------3---x--3-3-3--x--2-2-x----------0-x-0--0--0--0--x-----|
A|------------------x---------x--3---x------------x----------0--x-----|
E|--------------1------1------------------------3---3--3--3--3--------|
                                                             ^
Intro Continued
                 F            C                G5   C5/G  TmbSt TmbSt
                                                          ^     ^
e|--------------------------------------------------------3-----3----|
B|--3/5/3p0--1---x--1-1-1--x--1-1-x---3/5/3--3-x-3--1--0--0--x--0--x-|
G|--2/4/2p0--0h2-x--0h2p0--x--0-0-x---2/4/2--0-x-0--0--0--0--x--0--x-|
D|-----------3---x--3-3-3--x--2-2-x----------0-x-0--0--0--0--x--0--x-|
A|---------------x---------x--3---x------------x----------0--x--0--x-|
E|-----------1------1------------------------3---3--3--3--3-----3----|
                                                          ^     ^
************
Verse:
    F      TmbSt C    TmbSt   G      TmbSt Am     TmbSt
           ^            ^            ^            ^
e|----------------------0------------3---------------------|
B|--1--x-1-1-x---1--x-1-1-x---0--x-0-0-x---1--x-1-1-x------|
G|--2--x-2-2-x---0--x-0-0-x---0--x-0-0-x---2--x-2-2-x------|
D|--3--x-3-3-x---2--x-2-2-x---0--x-0-0-x---2--x-2-2-x------|
A|---------m-x---3--x-3-3-x----------m-----0--x-0-0-x------|
E|--1--x-1-1-x----------------3--x-3-3-x-------------------|
           ^            ^            ^            ^
Repeat this above verse pattern 3 times

Verse ending chord progression is same as above but does not include the Am, rather it
repeats the G chord shape as seen below

    F      TmbSt C    TmbSt   G      TmbSt TmbSt TmbSt
           ^            ^            ^     ^     ^
e|----------------------0------------3-----3-----3-----|
B|--1--x-1-1-x---1--x-1-1-x---0--x-0-0-x-0-0-x-0-0-x---|
G|--2--x-2-2-x---0--x-0-0-x---0--x-0-0-x-0-0-x-0-0-x---|
D|--3--x-3-3-x---2--x-2-2-x---0--x-0-0-x-0-0-x-0-0-x---|
A|---------m-x---3--x-3-3-x----------m-----m-----m-x---|
E|--1--x-1-1-x----------------3--x-3-3-x-3-3-x-3-3-----|
           ^            ^            ^     ^     ^

The rest is easy cake.  I do not think it is necessary to do the rest at this time.  If
you want more please comment or email me. If you master these first two iterations of
the chord progression, the third iteration is a simple strum plucking the bass note of 
each chord as you go through.


Verse Lyrics with chord shapes:

             F                                  C
When I was a kid, the things I did, were hidden under the grid
          G                  

David Tabs by Passenger

 Capo on 5th/6th fret (depending on version)

Strumming pattern:     *when a chord includs high e string
e|--------------|      |--------------|
B|-------x------|      |-------x------|
G|---------x----|      |---------x----|
D|----x------x--|      |----x------x--|
A|--x-----------|      |--------------|
E|--------------|      |--x-----------|

Intro/Verse:           Chorus:
e|--------------|      |--------------------------|
B|--1--1--1--1--|      |--0--1--1--1--0--1--1--0--|
G|--0--0--2--0--|      |--0--0--2--0--0--2--2--0--|
D|--2--0--3--0--|      |--0--2--3--2--0--2--3--0--|
A|--0--x--x--x--|      |-(2)-3--x--3-(2)-0--x-(2)-|
E|-----3--1--3--|      |--3-----1-----3-----1--3--|

Quick update (not really) on strumming pattern. Mike also uses/I think uses this pattern too:
                          *high e string
e|-------------------|    |--------------------|
B|-----x-------------|    |-----x--------------|
G|----------x-----x--|    |-----------x-----x--|
D|-----x-------x-----|    |-----x--------x-----|
A|--x-----x----------|    |--------------------|
E|-------------------|    |--x-----x-----------|

It's not perfect, but that's somewhat a good(ish) thing. Great song, by a 
brilliant artist. Enjoy and happy new year!!

Passenger chords – Britney Spears

 It's basically the same 4-chord sequence the whole song.

Key:  B B 
I can't let go of control
 C#m              
I can't let go and not know
 G#m 
Don't know the way ahead of me
 E 
One day at a time is all I need
 B 
There was a time without trust
 C#m 
There was a time without love
 G#m 
But it took you to show me
 E 
I could hand over the keys

[Chorus]
 B 
I'll let you lead the way now
 C#m 
Cus I want you to take the wheel
 G#m 
I've never been a passenger though
 E 
I never knew how good it would feel
 B 
The road will twist and turn but
 C#m 
I know that I am in good hands
 G#m 
I've never been a passenger, no
 E B 
But we'll see more without a map
           C#m 
Without a map
           G#m 
Without a map
            E 
Without a map


[Verse 2]
 B 
So let's take a walk and get lost
 C#m 
Let's take a chance on finding us
 G#m 
I wanna see the world with you
 E 
Every step feels so brand new
 B 
It's hard to jump with no net
 C#m 
But I've jumped and got no regret
 G#m 
The co-pilot, yeah that's right
 E 
I know I can trust and just enjoy the ride


[Chorus]
 B 
I'll let you lead the way now
 C#m 
Cus I want you to take the wheel
 G#m 
I've never been a passenger though
 E 
I never knew how good it would feel
 B 
The road will twist and turn but
 C#m 
I know that I am in good hands
 G#m 
I've never been a passenger, no
 E B 
But we'll see more without a map
           C#m 
Without a map
           G#m 
Without a map
            E 
Without a map


[Bridge]
 B 
I know we're finally falling
 C#m 
Cus I was giving you half no more than
 G#m E 
My hand's in the air while you drive
            B C#m G#m E 
This is living, This is living, This is living (yeah)


[Chorus]
 B 
I'll let you lead the way now
 C#m 
Cus I want you to take the wheel
 G#m 
I've never been a passenger though
 E 
I never knew how good it would feel
 B 
The road will twist and turn but
 C#m 
I know that I am in good hands
 G#m 
I've never been a passenger, no
 E B 
But we'll see more without a map
           C#m 
Without a map
           G#m 
Without a map
            E 
Without a map

 B ,  C#m ,  G#m ,  E B

Passenger Pigeons chords – The Handsome Family

 G Em 
Ever since you moved out
            C G 
I've been living in the park
             G Em    
I'd rather talk to the wind
  C G 
Than an empty apartment

        G Em 
And I wish I could forget
        C G 
How a billion birds flew in
        G Em 
To my hollow dying heart
      C G 
The first time I touched your arm

  Em G Am C 
Once there were a billion passenger pigeons
     G Em C 
So many flew by they darkened the sky

      G Em 
But they were clubbed and shot
  C G 
Netted gassed and burned
         G Em 
Until there was nothing left
      C G 
But piles of empty nests

 Em G Am C 
I can't believe how easily
    G C 
A billion birds can disappear

      G Em 
The park is empty now
      C G 
It's so cold out
      G Em 
And all the paddle boats
      C G 
Are covered up with snow

      G Em 
But I'm still sitting here
  C G 
Drinking frozen beer
       G Em 
And throwing potato chips
  C G 
On to the white snow drifts
          G Em 
Just in case a bird decides
     C G 
To fly through here tonight


 Em G Am C 
I can't believe how easily
    G C 
A billion birds can disappear
    Em G Am C 
No I can't believe how easily
    G C 
A billion birds can disappear

Staring At The Stars Tabs by Passenger

 Passenger, Staring At The Stars - Acoustic Version
Capo 4 (or 5 if you're playing along with the more upbeat version)

(/) Slide Up  (\) Slide Down  (h) Hammer On  (p) Pull Off  (b) Bend (r) Release (v) Vibrato

The basis picking pattern is (though in the Em, F & G chords, you use the E as the bass string):

E|--------------------|
B|-----x-----------x--|
G|-----------x--------|
D|-----x--------x-----|
A|--x-----x-----------|
E|--------------------|



--- INTRODUCTION ---

    C                                         Em
E|--------------------|--------------------|--------------------|--------------------|
B|-----1-----------1--|-----1-----------1--|-----0-----------0--|-----0-----------0--|
G|-----------0--------|-----------0--------|-----------0--------|-----------0--------|  REPEAT
D|-----0h2------2-----|-----0h2------2-----|-----2--------2-----|-----2--------2-----|   X 4
A|--3-----3-----------|--3-----3-----------|--------------------|--------------------|
E|--------------------|--------------------|--0-----0-----------|--0-----0-----------|





--- VERSE 1 ---

    C                                         Em
E|--------------------|--------------------|--------------------|--------------------|
B|-----1-----------1--|-----1-----------1--|-----0-----------0--|-----0-----------0--|
G|-----------0--------|-----------0--------|-----------0--------|-----------0--------|  REPEAT
D|-----0h2------2-----|-----0h2------2-----|-----2--------2-----|-----2--------2-----|   X 4
A|--3-----3-----------|--3-----3-----------|--------------------|--------------------|
E|--------------------|--------------------|--0-----0-----------|--0-----0-----------|





--- BRIDGE ---

    F                                         C
E|--------------------|--------------------|--------------------|--------------------|
B|-----1-----------1--|-----1-----------1--|-----1-----------1--|-----1-----------1--|
G|-----------2--------|-----------2--------|-----------0--------|-----------0--------|
D|-----3--------3-----|-----3--------3-----|-----0h2------2-----|-----0h2------2-----|
A|--------------------|--------------------|--3-----3-----------|--3-----3-----------|
E|--1-----1-----------|--1-----1-----------|--------------------|--------------------|


    G                                         Am
E|--------------------|--------------------|--------------------|--------------------|
B|-----0-----------0--|-----0-----------0--|-----1-----------1--|-----1-----------1--|
G|-----------0--------|-----------0--------|-----------2--------|-----------2--------|
D|-----0--------0-----|-----0--------0-----|-----2--------2-----|-----2--------2-----|
A|--------------------|--------------------|--0-----0-----------|--0-----0-----------|
E|--3-----3-----------|--3-----3-----------|--------------------|--------------------|

    F                                         C
E|--------------------|--------------------|--------------------|--------------------|
B|-----1-----------1--|-----1-----------1--|-----1-----------1--|-----1-----------1--|
G|-----------2--------|-----------2--------|-----------0--------|-----------0--------|
D|-----3--------3-----|-----3--------3-----|-----0h2------2-----|-----0h2------2-----|
A|--------------------|--------------------|--3-----3-----------|--3-----3-----------|
E|--1-----1-----------|--1-----1-----------|--------------------|--------------------|


    G                                         G
E|--------------------|--------------------|--------------------|--------------------|
B|-----0-----------0--|-----0-----------0--|-----0-----------0--|-----0-----------0--|
G|-----------0--------|-----------0--------|-----------0--------|-----------0--------|
D|-----0--------0-----|-----0--------0-----|-----0--------0-----|-----0--------0-----|
A|--------------------|--------------------|--------------------|--------------------|
E|--3-----3-----------|