Tag: pink

Wish You Were Here guitar chords by Pink Floyd

[Intro]
Em7  G  Em7  G  Em7  A7sus4  Em7  A7sus4  G       x2

[Verse 1]
C                         D/F#
So, so you think you can tell,
             Am/E                   G
Heaven from Hell, blue skies from pain.
                     D/F#                      C                    Am
Can you tell a green field from a cold steel rail, a smile from a veil,
                      G
Do you think you can tell?

[Verse 2]
                      C                   D/F#
Did they get you to trade your heroes for ghosts,
                Am/E                  G                             D/F#
Hot ashes for trees, hot air for a cool breeze, cold comfort for change,
                  C                        Am                         G
And did you exchange a walk on part in the war for a lead role in a cage?

[Instrumental]
Em7  G  Em7  G  Em7  A7sus4  Em7  A7sus4  G

[Verse 3]
C                               D/F#
How I wish, how I wish you were here.
           Am/E                                    G                D/F#
We're just two lost souls swimming in a fish bowl, year after year,
                                  C
Running over the same old ground. What have we found?
             Am                         G
The same old fears. Wish you were here!

[Instrumental]
Em7  G  Em7  G  Em7  A7sus4  Em7  A7sus4  G

Outside The Wall Tabs – Pink Floyd V2

 -------------------------------------------------------------------------------
                             OUTSIDE THE WALL - Pink Floyd
                                        -The Wall-
-------------------------------------------------------------------------------
Couldn't find a tab that had the right pitch and tone so I gave it a shot.
Liggs121595

(Side note this is usually done with a cornet. This means you have to let the notes ring
out to sound similar)
This is a Slower song.

E|--12--12--13--12--|----12-12--8-8---10--12---|----10--10/10--10/10------|----10--878---|
B|------------------|--------------------------|--------------------------|--------------|
G|------------------|--------------------------|--------------------------|--------------|
D|------------------|--------------------------|--------------------------|--------------|
A|------------------|--------------------------|--------------------------|--------------|
E|------------------|--------------------------|--------------------------|--------------|

E|---7--8---10--Back to top--------------------|--------------------------|--------------|
B|------------------|--------------------------|--------------------------|--------------|
G|------------------|--------------------------|--------------------------|--------------|
D|------------------|--------------------------|--------------------------|--------------|
A|------------------|--------------------------|--------------------------|--------------|
E|------------------|--------------------------|--------------------------|--------------|
Play the top part 4 times. 
The second and third time play the bottom.

Anisina Tabs – Pink Floyd

 -------------------------------------------------------------------------------
                             Anisina - Pink Floyd
-------------------------------------------------------------------------------

Tuning:

Note: A slide will be needed, especially for higher notes beyond the neck

0:38 (with a slide)

e|---------------------------------------------------------------------------|
B|--8/13------------------8/13/17--------------------------------------------|
G|---------------------------------------------------------------------------|
D|---------------------------------------------------------------------------|
A|---------------------------------------------------------------------------|
E|---------------------------------------------------------------------------|

0:50 (with a slide)

e|--15-15/17\12-12---17--15--12/13\12\3--------------------------------------|
B|------------------------------------------5/10-----------12/13\12-5/10\8---|
G|---------------------------------------------------------------------------|
D|---------------------------------------------------------------------------|
A|---------------------------------------------------------------------------|
E|---------------------------------------------------------------------------|

e|---------------------------------------------------------------------------|
B|------5\3/5----5/8/10---10/12-12/13-13/15/17/18/20-------------------------|
G|---------------------------------------------------------------------------|
D|---------------------------------------------------------------------------|
A|---------------------------------------------------------------------------|
E|---------------------------------------------------------------------------|

1:53 (with a slide)

e|---------------17--17/19--19/20--20/22--22/24--24/27--27/29--29/31--31/32--32/34--34/36----|
B|--8/18--18/20------------------------------------------------------------------------------|
G|-------------------------------------------------------------------------------------------|
D|-------------------------------------------------------------------------------------------|
A|-------------------------------------------------------------------------------------------|
E|-------------------------------------------------------------------------------------------|

2:20 (without slide from now on)

e|--------------------------------------------------------15-15---------15b-15br-15-15-------|
B|-----13-15-15b--15br-13--17b-17br-17b--17br-13------15b--------13-13-----------------------|
G|--12---------------------------------------------------------------------------------------|
D|-------------------------------------------------------------------------------------------|
A|-------------------------------------------------------------------------------------------|
E|-------------------------------------------------------------------------------------------|

2:34 

e|--15b--15br-15-------------------------------12--12h13p12----------------------------------|
B|----------------13-15-15b--13-15----------13--------------13-15---13-13--------------------|
G|---------------------------------14----14--------------------------------------------------|
D|-------------------------------------------------------------------------------------------|
A|-------------------------------------------------------------------------------------------|
E|-------------------------------------------------------------------------------------------|


************************************

| /   slide up
| \   slide down
| h   hammer-on
| p   pull-off
| ~   vibrato
| +   harmonic
| x   Mute note
| b   Bend
| pb  Pre-bend
| br  Bend release
| pbr Pre-bend release
| brb Bend release bend

************************************

It Would Be So Nice chords – Pink Floyd V2

 Pink Floyd - It Would Be So Nice
song: http://www.youtube.com/watch?v=jlJPqRs0ZLM

CHORUS
 E 
 It would be so nice
 D/E 
 It would be so nice
 C#m/E 
 It would be so nice
    F A 
To meet, sometime

VERSE 1
 D A 
Everybody wakes and in the morning
 D A 
 Hot tea and can't stop yawning
 G D 
Pass the butter please
 D A 
Have you ever read the Daily Standard?
 D A                 
Reading all about the plane that's landed
 G D 
Upside down?

PRE-CHORUS
 Bb A 
And no one knows what I did today
 Bb D 
 There can be no other way
 B7 
 But I would just like to say

CHORUS
 E 
 It would be so nice
 D/E 
 It would be so nice
 C#m/E 
 It would be so nice
    F 
To meet, sometime
 E 
 It would be so nice (It would be so)
 D/E 
 It would be so nice (nice, be so)
 C#m/E 
 It would be so nice (nice, be so)
    F A 
To meet, sometime (nice)

VERSE 2
 D A 
Everybody cares about the weather
     D A 
And everybody should know better
 G D 
What a waste of time
 D A 
Everybody lives beneath the ceiling
 D A 
Living out a dream that sends them reeling
 G D 
To a distant place

PRE-CHORUS
 Bb A 
And no one knows what I did today
 Bb D 
 There can be no other way
 B7 
 But I would just like to say

CHORUS
 E 
 It would be so nice (It would be so)
 D/E 
 It would be so nice (nice, be so)
 C#m/E 
 It would be so nice (nice, be so)
    F 
To meet, sometime (nice)

OUTRO CHORUS (2x, until fade out)
 E 
 It would be so nice (It would be so)
 D/E 
 It would be so nice (nice, be so)
 C#m/E 
 It would be so nice (nice, be so)
    G# 
To meet, sometime

Pink Fluffy Unicorns Dancing On Rainbows chords – Andrew Huang

 This song is pretty easy, it only has 4 different chords and is really repetitive. 
For the rainbow part,you can use F or Am or both(it sounds the same either way).Its an 
awesome song to use to annoy your friends. Hope you enjoy:)

Capo: 4

Intro: F , G , C F G C F Am  
Pink fluffy unicorns dancing on rainbows (repeat 4 times)

Bridge:

Let's test your knowledge and see what you've learned so far! What colour are the unicorns?
PINK!
Where are they dancing?
RAINBOWS!
Please use one word to describe the texture of their magical fur.
(silence)
Smiles!
YEEEEAAAAH!

  F G C F Am  
Pink fluffy unicorns dancing on rainbows (repeat 7 times)
  F G C F Am 
Pink fluffy unicorns dancing on dancing on rain...

Louder Than Words chords – Pink Floyd

  Kwint and Troy.


Artist : Pink Floyd
Song   : Louder Than Words
Album  : The Endless River [2014]

NO CAPO


Chord diagram for intro:
C#m [9,11,11,9,9,9}
 B    [799877]
 A    [577655]

INTRO:
 C#m  -  B A D 

VERSE:
 D 
We bitch and we fight, diss each other on sight
           Am 
But this thing we do...
 D 
These times together, rain or shine or stormy weather
       Am 
This thing we do...
 D 
With world-weary grace we've taken our places
           Am 
We could curse it or nurse it and give it a name.

Or stay home by the fire
felled by desire, stoking the flame.
But we're here for the ride.


CHORUS:
 B 
It's louder than words
                     A 
This thing that we do

Louder than words
              C#m 
It way it unfurls.
 B 
It's louder than words
                 A 
The sum of our parts

The beat of our hearts
                 C#m 
Is louder than words
              F# 
Louder than words


INTERUDE:
 D 


VERSE:
 D 
The strings bend and slide as the hours glide by
     Am 
An old pair of shoes, your favorite blues gonna tap out the rhythm
 D 
Let's go with the flow wherever it goes
        Am 
We're more than alive.


CHORUS:
 B 
It's louder than words
                     A 
This thing that we do

Louder than words
              C#m 
It way it unfurls.
 B 
It's louder than words
                 A 
The sum of our parts

The beat of our hearts
                 C#m 
Is louder than words
              F# 
Louder than words


Guitar Solo: (technically Verse chords and Chorus chords)
 D Am D Am B A C#m    -    B A C#m F# E 


If you have any suggestions/corrections, please let us know in the comments!

Im Tickled Pink chords – Jack Shaindlin

 I'm Tickled Pink
Jack Shaindlin (1938)

 Eb Eb 
(Do-do-do, do-doo do-do-do, do-do-do, do)

    Fm 
e|-8-6-----------------------|
B|-----9-8-6-----------------|
G|-----------8-7-5-----------|
D|-----------------8-6-5-----|
A|-----------------------8-6-|
E|---------------------------|

 Eb Edim7 
I'm tickled pink
      Fm Bb7 
That things are rosy
 Eb Edim7 Fm 
And skies are blue once again
 Bb7 
(Do-do-do-do do do)

         Eb Eb Ab7 Fm 
Let the bygones go bye-bye
         Eb Edim7 Fm 
No more will I sigh or cry
 Bb 
(Do do-do-de-do)

 Eb Edim7 
I'm tickled pink
     Fm Bb7 
The moon is yellow
 Eb Edim7 Fm 
And I'm your fellow tonight
 Bb7 
(Do-do-do-do do do)
            Eb Ab7 
Soon we'll greet that red-letter day
      A7 Eb/Bb Fm 
When I will pop the question
              Bb C7 
And you say OK
          Fm Bb Eb 
Say then we'll be married in the month of May
 Bb7 
(Do do-do-de-do)

https://www.youtube.com/watch?v=AWJY-JPjRXA

The Post War Dream chords – Pink Floyd V3

 Pink Floyd  The Post War Dream 


 Bb C F Bb/F F Bb C Bb/F F Bb/F F Bb 
Tell me true, tell me why was Jesus crucified?

 C C7 F 
Is it for this that daddy died?

 Bb/F F 
Was it you? Was it me?

       Bb 
Did I watch too much T.V.?

           C F Bb/F 
Is that a hint of accusation in your eyes?

 F 
If it wasn't for the Nips

 F7 Bb 
Being so good at building ships,

     C C9 F 
The yards would still be open on the Clyde.

                              F7 
And it can't be much fun for them

   Bb 
Beneath the rising sun

      C C7 F 
With all their kids committing suicide.

              Bb F 
What have we done, Maggie what have we done?

               Bb 
What have we done to England?

 C F A 
Should we shout, should we scream,

       Bb Bbm F/C Dm7 
"What happened to the post war dream?"

 Gm7 C7 
Oh, Maggie,

        C7+ F C Bb F 
Maggie what have we done?

Shine On You Crazy Diamond Parts 5-9 solo Tabs by Pink Floyd

 This is the first solo to Shine On You Crazy Diamond. It uses a slide.

/= slide

e|---------------------------------------------------------------------------|
B|---------------------------------------------------------------------------|
G|----------12-----12/10----------12---------15/14------9----10/12-----3/2-0-|
D|---/12----------------10/12------------------------------------------------|
A|---------------------------------------------------------------------------|
E|---------------------------------------------------------------------------|

e|---------------------------------------------------------------------------|
B|------------------------------------------------------/15/----/13/---------|
G|------------12--------12/10-------------12---------------------------------|
D|----10/12---------------------10/12----------------------------------------|
A|---------------------------------------------------------------------------|
E|---------------------------------------------------------------------------|

e|---------------------------------------------------------------------------|
B|---11/10----------------------------------/17/-----------------------------|
G|----------------/12------0/12----------------------------------------------|
D|---------------------------------------------------------------------------|
A|---------------------------------------------------------------------------|
E|---------------------------------------------------------------------------|

e|---------------------------------------------------------------------------|
B|---------------------------------------------------------------------------|
G|----12--------7/5----3/7-----------/10--/9----------9/7--------------------|
D|----------------------------------------------------------7/8----10/12-----|
A|---------------------------------------------------------------------------|
E|---------------------------------------------------------------------------|

e|--------------------------------------------------------------15/----------|
B|---------------------------------------------------------/15---------------|
G|---12---12/10------------12---------15/14-----10/12---------------6/12-----|
D|----------------10/12------------------------------------------------------|
A|---------------------------------------------------------------------------|
E|---------------------------------------------------------------------------|

e|--------------------------------------------3------------------------------|
B|--11/10/8/6-----------------------3---/3-----------------------------------|
G|-------------7/5/3/2---------2/3-----------------3/0-----------------------|
D|-----------------------3/5----------------------------5/3----3/5/3---------|
A|--------------------------------------------------------------------5------|
E|---------------------------------------------------------------------------|

e|--------15----15/13----------15---------15/18----15------15-----15/13------|
B|--/15-------------------/15------/15----------------/15--------------------|
G|---------------------------------------------------------------------------|
D|---------------------------------------------------------------------------|
A|---------------------------------------------------------------------------|
E|---------------------------------------------------------------------------|

e|---------13/15-------------15----------------------------------------------|
B|---15------------13/15-----------------------------------------------------|
G|---------------------------------------------------------------------------|
D|---------------------------------------------------------------------------|
A|---------------------------------------------------------------------------|
E|---------------------------------------------------------------------------|

e|---/22----/20------18--17-----15/13/15---15/----

Kayleigh Gonzales chords – Pink

 Artist: Adam Lambert
Song: Whataya Want From Me (Acoustic Live! EP)
Tuning: Standart
Capo: 1st fret

Intro: (playing like with no capo, I mean, countdown starts from zero fret, not 
1st. So if capo is on 1st fret you will play open D string at the end)

e|--6---6-5-10101010-3-3-|
B|--x---x-x-x-x-x-x--x-x-|
G|--x---x-x-x-x-x-x--x-x-|
D|--5---5-3-8-8-8-8--1-1-|
A|-----------------------|
E|-----------------------|

Verse:

 F#m E 
Hey, slow it down
 A D 
Whataya want from me
 A D 
Whataya want from me
 F#m E 
Yeah, I'm afraid
 A D 
Whataya want from me
 A D 
Whataya want from me

 F#m 
There might have been a time
 E 
I would give myself away
 A D 
Ooh once upon a time
 A D 
I didn't give a damn

 F#m E 
But now here we are
 A D 
So whataya want from me
 A D 
Whataya want from me

Chorus:

 D E 
Just don't give up
 F#m A 
I'm workin' it out
 D E 
Please don't give in
 F#m A 
I won't let you down
 D E 
It messed me up
 F#m A 
Need a second to breathe
 D E 
Just keep coming around
 F#m A 
Hey, whataya want from me
 D E 
Whataya want from me

Final Cut solo Tabs by Pink Floyd

 this is the solo to one of my favorite songs, the final cut by pink Floyd.

key

b= bend
/= slide

e|-----------20-----17-------------------------------------------------------|
B|---18b------------------------18---18b----------18---17--15--------15--17--|
G|-------------------------17-----------------------------------17-----------|
D|---------------------------------------------------------------------------|
A|---------------------------------------------------------------------------|
E|---------------------------------------------------------------------------|


e|---------------------------------------------------------------------------|
B|---17b-------15---15-------------------------------------------------------|
G|----------------------17b---14-14-----------12b--12b/10/0------------------|
D|----------------------------------------12---------------------------------|
A|---------------------------------------------------------------------------|
E|---------------------------------------------------------------------------|


e|---------------------------------------------------------------------------|
B|-----20b-----22b/20-------------15--18--18b----18--17--15------------------|
G|-----------------------------------------------------------17---15---------|
D|---------------------------------------------------------------------------|
A|---------------------------------------------------------------------------|
E|---------------------------------------------------------------------------|

e|---------------------------------------------------------------------------|
B|---------------------------------------------------------------------------|
G|-------14------12----------------------------------------------------------|
D|------------------------15/0-----------------------------------------------|
A|---------------------------------------------------------------------------|
E|---------------------------------------------------------------------------|

Flaming chords – Pink Floyd V2

 E D 
Alone in the clouds all blue
 Bm A           
Lying on an eiderdown.
    E A 
Yippee! You can't see me
     D F E 
But I can you.

 E D 
Lazing in the foggy dew
 Bm A 
Sitting on a unicorn.
     E A 
No fair, you can't hear me
     D F E 
But I can you.

 E D 
Watching buttercups cup the light
 Bm A 
Sleeping on a dandelion.
      E A 
Too much, I won't touch you
      D F E 
But then I might.

 E D 
Screaming through the starlit sky
 Bm A 
Travelling by telephone.
     E A 
Hey ho, here we go
 D F E 
Ever so high.

 E D 
Alone in the clouds all blue
 Bm A 
Lying on an eiderdown.
    E A 
Yippee! You can't see me
     D F A G F A 
But I can you.

Most Girls chords – Pink

 -----------------------------------------------------------------------------
                       MOST GIRLS - Pink
-----------------------------------------------------------------------------

Band/Artist: Pink
Album/Year: Can't Take Me Home (2000)

Standard Tuning

[Intro]
 Dm B A Dm 
I never cared too much for love
                       B A 
it was all a bunch of mush that I just did not want
 Dm 
paid was the issue of the day
                            B 
if a girlfriend's got some game
                              A G 
Couldn't be more fly, gettin paid was everything
                   C A Dm 
but I'm not every girl and I don't need that world to validate me
     B A Dm 
cuz shorty's got a job, shorty's got a car, shorty can pay her own rent
             B A 
Don't wanna dance if it is not in my heart

 Dm 
most girls want a man with the bling bling
got my own thing, got the ching ching
 B A 
I just want real love
 Dm 
most girls want a man with the mean green
don't wanna dance if he can't be
 B 
everything that I dream of
                 A 
a man that understands real love

 Dm 
I was a girl about the floss
                      B A 
it was all about the cost, how much he spent on me
 Dm 
seek for a man who's got the means
                          B 
to be givin you diamond rings
                                A G 
it's what every fly girl could want or even dream
                    C A Dm 
but I'm not every girl and I don't need no G to take care of me
      B A Dm 
'cuz shorty's got a job, shorty's got a car, shorty can pay her own rent
             B A 
don't wanna dance if it is not in my heart, no no

Two Suns In The Sunset chords – Pink Floyd V2

 Pink Floyd - Two Suns In The Sunset
-----------------------------------

Intro -  D A G G A D D A G G A D D G G A D 
In my rear view mirror, the sun is going down
 D G G A  
Sinking behind bridges in the road,
   G A D A G 
I think of all the good things that we have left undone
       Em Bm 
And I suffer premonitions, confirmed suspicions,
 Em A D A G G A D D A G G A D 
Of the hollocaust to come

 D G G A D 
The rusty wire that holds the cork, that keeps the anger in,
 D G G A 
Gives way, then suddenly it's day again,
     G A D A G 
The sun is in the east, even though the day is done,
 Em Bm 
Two suns in the sunset, Hmmmmmmmmm_____
 Em A D A G G A D D A G G A D 
could be the human race is run

 A Bm 

BRIDGE:
  Bm A Bm 
Like the moment when the brakes lock
 Bm A  
And you slide towards the big truck     (Oh No)
 A G A D 
You stretch the frozen moment with your fear  (Aaaaaaaaaaahh!!)
 Bm A Bm 
And you'll never hear their voices  (Daddy Daddy!)
 Bm A 
And you'll never see their faces 
 G A D D A G G A D D A G G A D 
You have no recourse to the law, anymore


 D G G A D 
And as my windshield melts, and my tears evaporate,
 D G G A 
Leaving only charcoal to defend,
 G A D A G 
Suddenly I understand the feelings of the few,
 Em Bm 
Ashes and diamonds, foe and friend,
 Em A D A G G A D D A G G A D 
We were all equal in the end


 D A G G A D D A G G A D  - to fade

Akala Mo chords – Prettier Than Pink

 Akala Mo
Prettier Than Pink


 

   Intro:  A --

   A 
   Akala mo, niloko mo ako
   A 
   Iniwan, binihag mo ako
               D E A F#m 
   Ngunit nang maranasan ko'ng pag-ibig n'ya
     D E 
   Wala ka palang say, pare ko

   A 
   Akala mo, walang hihigit sa 'yo
   A 
   Mas guwapo ka, maton ang dating mo
                 D E A - F#m 
   Ngunit nang makilala ko'ng kaibigan mo
     D E 
   Nabura na ang gayuma mo

               Chorus
          D E A - F#m 
   Ibang-iba ang trato n'ya sa akin
            D E A - F#m 
   Puro lambing at maalalahanin
               D E A - F#m 
   Ang himig n'ya laging para sa akin
    D E A 
   Talaga ako malalasing

   A 
   Akala mo, sa 'yo ang puso ko
   A 
   Namamatay, naloloko sa 'yo
               D E A - F#m 
   Ngunit nang maranasan ko'ng pag-ibig ng iba
     D E 
   Wala ka palang say, pare ko

   (Repeat Chorus)

   Adlib:  A --
           D - E - A - F#m - D - E -

   (Repeat Chorus 2x)

   Interlude:  A --

   A A  break
   Akala mo, niloko mo ako

Para Sa Iyo chords – Prettier Than Pink

 Para Sa Iyo
Prettier Than Pink

   Intro:  CM7 - BbM7 -
           CM7 - BbM7  break  BbM7  pause

           CM7 
   Di ko kayang
      BbM7 CM7 
   Mabuhay sa mundo nang mag-isa
      BbM7 F - Fm 
   Kaya't o giliw ko, halika na
              CM7 - BbM7  break  BbM7  pause
   Sa piling ko

           CM7 
   O kay saya 
      BbM7 CM7 
   Ng buhay ko pag kapiling ka
      BbM7 F Fm 
   Kaya't sabihin mong ako na nga
                CM7 - C7 
   Ang mamahalin

               Chorus
     F Fm CM7 
   Ikaw pa lang ang minahal nang ganito
    C7 F - Fm 
   Ibibigay ang puso't buhay ko
             CM7 - BbM7 CM7 - BbM7  break  BbM7  pause
   Para sa 'yo,    o giliw ko

           CM7 
   Sana naman
        BbM7 CM7 
   Wag nang lisanin ang pusong ito
      BbM7 F Fm 
   Mamamatay kapag iniwan mo
               CM7 - C7 
   Kahit sandali

   (Repeat Chorus)

   Adlib:  CM7 - BbM7 -; (3x)
           CM7 - C7 -

   (Repeat Chorus except last word)

               CM7 - BbM7 
          ... ko

          Coda
             CM7 - BbM7 - CM7 - BbM7 -
   Para sa 'yo
             CM7 - BbM7 - CM7 - BbM7 -
   Para sa 'yo

   (Repeat Coda to fade)

Diyan Ka Na chords – Prettier Than Pink

 Diyan Ka Na
Prettier Than Pink

   Intro:  C - CM9 - FM7 - F6 -; (3x)

   C CM9 F G7sus 
   Dati-rati ako'y walang imik
   C CM9 F G7sus 
   Nagpupumilit at puro tiis
   C CM9 F G7sus 
   Binabalewala mo pa
            A# Dm7 Dm7/G  pause
   Mga pangako mo'y biglang naglaho

            Chorus
              C CM9 
   Diyan ka na, diyan ka na
      F G7sus 
   Diyan ka na sinta
           C CM9 
   Paalam na, paalam na
       F G7sus 
   Paalam na sa 'yo
             Am Em 
   Diyan ka na, diyan ka na
     Dm C 
   Diyan ka na sinta
      A# Am 
   Ako'y nagising na, mga mata'y namulat na
     G# G7sus      ( C )
   Kung wala ka pa, ayoko na

   Interlude:  C - CM9 - F - G7sus -

   C CM9 F G7sus 
   Sa hating-gabing madilim
   C CM9 F G7sus  
   Ang puso'y lumuluha pagkat wala ka pa
   C CM9 F G7sus 
   Uso pa kaya ang tulad ko
            A# Dm7 Dm7/G  pause
   Kung marami pa'y bawasan ng isa

   (Repeat Chorus except last word)

               C - CM9 
         ... na

            Bridge
   F Em Dm C 
   Di naman ako naghahanap
   F Em D# Dm7 G7sus ,  A7sus 
   Simple lamang ang aking mga pangarap

   (Repeat Chorus moving chords 1  <d> step higher,
    except last word)

              D-DM9-G-A7sus
         ... na

            Coda
   (Do chord pattern: D-DM9-G-A7sus)
   Ayoko na
   Diyan ka na, sinta
   Hoo... sinta
           (fade)</d>

Cool Ka Lang chords – Prettier Than Pink

 Cool Ka Lang
Prettier Than Pink


 

   Intro:  C -- G -- F -- G --; (2x)  C --

     C 
   Buhol-buhol ang traffic
     G 
   Kinat ka pa ng jeep
     Gm 
   Minura pa ng driver
        F 
   At ulo'y uminit

            Refrain
     Fm C 
   Kumukulo na ang dugo mo
      Fm C 
   Kaya't sundan mo aking payo
         Fm G 
   Problema'y lilipas na lang

             C Caug 
   Kaya'y cool ka lang, cool ka lang
    C6 Caug 
   Bakit ba palagi ka na lang ganyan?
      C Caug 
   Cool ka lang, cool ka lang
      C6 Caug 
   Daanin mo sa galit, noo'y kukunot lang

   (Repeat Intro)

    C 
   Overtime daw
         G 
   Nag-goodtime lang pala
    Gm 
   Pag-uwi sa bahay
      F 
   Amoy alak pa siya

   (Repeat Refrain)

             C Caug 
   Kaya'y cool ka lang, cool ka lang
    C6 Caug 
   Bakit ba palagi ka na lang ganyan?
      C Caug 
   Cool ka lang, cool ka lang
      C6 Caug 
   Pwedeng-pwede mo naman siyang palitan

   (Repeat Intro)

     C 
   Mananahimik na
          G 
   Ang daming hirit
       Gm 
   Ano'ng paki nila
      F 
   Baka sila'y inggit

   (Repeat Refrain)

             C Caug 
   Kaya'y cool ka lang, cool ka lang
    C6 Caug 
   Bakit ba palagi ka na lang ganyan?
      C Caug 
   Cool ka lang, cool ka lang
      C6 Caug 
   Hayaan mo na lang, magsisisi rin yan

             Bridge
     C Caug 
   Easy ka lang, relaks ka lang
     F 
   Simple lang ang buhay
         Em 
   Ngumiti ka na lang
     F Em 
   Daanin mo sa galit, noo'y kukunot lang
      F G C - Caug - C6 - Caug 
   Kaya't kaibigan, konting pasensiya lang

              Coda
    C Caug C6 - Caug 
   Cool ka lang, cool ka lang

   Do chord pattern to fade:  C - G - F - G

Just Give Me Reason Tabs by Pink V2

 This is one of my first tabs but the notes sound very close to perfect. let me know if 
you have any problems Martinb1@blueyonder.co.uk

E/1------------5-----------/     /-------|
B/2--8-8-8-7-5---7-----8---/     /-------|
G/3-----------------------7/  x3 /-5-4---|
D/4------------------------/     /-----7-|
A/6------------------------/     /-------|
E/6------------------------/     /-------|

E/1--7-7---------7-7-5-5-------5-5-----------------------8-7-5-3-3-|
B/2------8-8-------------7-7-------8-8-8-8-8-7-5-7-----------------|
G/3----------7-7-------------5---------------------7-7-7-----------|
D/4----------------------------------------------------------------|
A/5----------------------------------------------------------------|
E/6----------------------------------------------------------------|

E/1--7-7--------7-7-5-5---------5--------------------------8-7-5-3-3-|
B/2-------8-8-----------7-7-------8--8-8-8-8-8-7-5-7-----------------|
G/3-----------7-------------5-5----------------------7-7-7-----------|
D/4------------------------------------------------------------------|
A/5------------------------------------------------------------------|
E/6------------------------------------------------------------------|

Hope this tab worked for you :)

Hold On Little Tomato chords – Pink Martini

 F ]               [ Eaug ]         [  F ]   [  Eaug ]
The sun has left and forgotten me.
     [  F ]      [  Eaug ]   [  F ]  [  F7 ]
It’s dark I cannot see.
       [  Bb ]
Why does this rain pour down? I’m gonna 
[  Bbm ]
drown in a 
[  F ]                         G7 ]        [  C7 ]
sea of deep        con    fus    ion.   

         [  F ]    [  Eaug ]    [  F ]         [  Eaug ]
Somebody told me I don’t know  who,
       [  F ]    [  F7 ]    [  Bb ]      [  Bbm ]
whenever you are sad and blue and your
 [  F ]            [  A7 ]                [  Dm ][  G7 ]
feeling all alone and left behind, just
[  Bb ]               [  Bbm ]      [  F ]      [  F7 ]
take a look inside you and you’ll find.    You’ve gotta 

[  Bb ]      [  Bbm ]
hold on, hold on through the night.
[  F ]        [  F7 ]
Hang on, things will be alright.
[  G7 ]
Even if it’s dark, and not a bit of sparkling
[  C ]                         [  C7 ]
sing song sunshine from above
[  C6 ]                     [  C ]
spreading rays of sunny love.
        [  Bb ]      [  Bbm ]
Just hang on, hang on to the vine.
[  F ]       [  F7 ]
Stay on, soon you’ll be divine.
[  G7 ]
If you start to cry, look up to the sky.
[  C ]                       [  C7 ]
Something coming up ahead
[  C6 ]                        [  C ]
to turn your tears to dew instead.
[  F ]       [  Eaug ]       [  F ]    [  Eaug ]
And so I hold on to his advice 
       [  F ]      [  F7 ]                  [  Bb ]    [  Bbm ]
whenever change is hard and not so nice. 
       [  F ]                 [  A7 ]                         [  G7 ]
You listen to your heart the whole night though
                    [  Bb ]                   [  Bbm ]      [  C ]       [  F ]
your sunny someday will come one day soon to you.