Tag: planet

Peace And Love On Planet Earth chords – Rebecca Sugar

 [Steven]

 Dm7 G 
   Life and death and love and birth
     Cmaj7 Am7 
And peace and war on the planet Earth
 Dm7 G 
   Is there anything that's worth
           Cmaj7 Am7 
More than peace and love on the planet Earth
    Dm7 G 
Whoahh come on and sing it with me [Sing?]
 Cmaj7 Am7 
     The words relate to the key [Key?]
 Dm7 G 
   If it's a pattern, if it's a pattern
 Cmaj7 Am7 
     Then just repeat after me



 Dm7 G 
   Life and death and love and birth

[Peridot]

 Cmaj7 Am7 
     Life and death and love and birth

[Steven]

            Dm7 G 
Then using mi-fa-mi-mi-fa-mi-ti-la

[Both]

      Cmaj7 Am7 
And peace and war on the planet Earth



[Steven]

 Dm7 
   Yes yes! That's it!

[Peridot]

 G 
 That's so easy

[Steven]

 Cmaj7 Am7 
     Yeah but that's what's fun about it
                Dm7 G 
You should write something, you should write a song!

[Peridot]

About what?

[Steven]

       Cmaj7 Am7 
Whatever you're thinking



[Peridot]

                       Dm7 G 
I guess we're already here
                 Cmaj7 Am7 
I guess we already know
                           E7 
We've all got something to fear
                        Am7  
We've all got nowhere to go
                      Dm7 
I think you're all insane!
              Cmaj7 Am7 
But I guess I am too
               Dm7 
Anybody would be
              G Cmaj7 
If they were stuck on Earth with you!



[Steven]

       Cadd9 
Hehehehe yes!
 Dm7 G 
   Life and death and love and birth

[Amethyst]

 Cmaj7 Am7 
     Life and death and love and birth

[Pearl]

 Dm7 G 
   Life and death and love and birth and
  Cmaj7 Am7 
peace and war on the planet Earth

[Garnet]

 Dm7 G 
   Is there anything that's worth more

[Steven]

 Cmaj7 Am7 
     Is there anything that's worth more

[Peridot]

 Dm7 G 
   Is there anything that's worth more
      Cmaj7 Am7 
Than peace and love on the planet Earth

------------------------------------------
Props to danon24 for finding the chords on guitar.
Check out the awesome tutorial video here! https://www.youtube.com/watch?v=Us5uKcgZOQQ

Steven Universe – Peace And Love On Planet Earth Tabs – Misc Cartoons

 -------------------------------------------------------------------------------
                             Peace & Love (On Planet Earth) - Steven Universe
-------------------------------------------------------------------------------

Provided lyrics are a rough guide.

Tuning: Standard

    Life...       love...         peace...        planet earth
e|8-----8---------7-----7---------7-----7---------5-----5---------|
B|8---------8-----8---------8-----5---------5-----5---------5-----|
G|9-----------9---9-----------9---5-----------9---5-----------5---|
D|----------------------------------------------------------------|
A|----------------------------------------------------------------|
E|----------------------------------------------------------------|

    Is there   anything...        Peace...        planet earth?
e|8-----8---------7-----7---------7-----7---------5-----5---------|
B|8---------8-----8---------8-----5---------5-----5---------5-----|
G|9-----------9---9-----------9---5-----------9---5-----------5---|
D|----------------------------------------------------------------|
A|----------------------------------------------------------------|
E|----------------------------------------------------------------|

    Come on...    Me,               the words...  key,
e|8-----8---------7---------------7-----7---------5---------------|
B|8---------8-----8---------------5---------5-----5---------------|
G|9-----------9---9---------------5-----------9---5---------------|
D|----------------------------------------------------------------|
A|----------------------------------------------------------------|
E|----------------------------------------------------------------|

    If...           if...           then...       me,
e|8-----8---------7-----7---------7-----7---------5---------------|
B|8---------8-----8---------8-----5---------5-----5---------------|
G|9-----------9---9-----------9---5-----------9---5---------------|
D|----------------------------------------------------------------|
A|----------------------------------------------------------------|
E|----------------------------------------------------------------|

    Life...       love...           Life...       love...  But using
e|8-----8---------7---------------7-----7---------5---------------|
B|8---------8-----8---------------5---------5-----5---------------|
G|9-----------9---9---------------5-----------9---5---------------|
D|----------------------------------------------------------------|
A|----------------------------------------------------------------|
E|----------------------------------------------------------------|

  mi fa mi mi fa  mi ti la    and peace...        planet earth,
e|8-----8---------7-----7---------7-----7---------5-----5---------|
B|8---------8-----8---------8-----5---------5-----5---------5-----|
G|9-----------9---9-----------9---5-----------9---5-----------5---|
D|----------------------------------------------------------------|
A|----------------------------------------------------------------|
E|----------------------------------------------------------------|
    Yes, yes, that's it...
e|8-----8---------7---------------7-----7---------5---------------|
B|8---------8-----8---------------5---------5-----5---------------|
G|9-----------9---9---------------5-----------9---5---------------|
D|----------------------------------------------------------------|
A|----------------------------------------------------------------|
E|----------------------------------------------------------------|

  You should write...                                   ...already
e|8-----8---------7-----7---------7-----7---------5-----5---------|
B|8---------8-----8---------8-----5---------5-----5---------5-----|
G|9-----------9---9-----------9---5-----------9---5-----------5---|
D|----------------------------------------------------------------|
A|----------------------------------------------------------------|
E|--------------------------------

Dorothys A Planet chords – Guided By Voices

  Guided By Voices : Dorothy's A Planet (from Suitcase)


Tab by DouG

 

verse figure:

|-----0--------0-----------0--------0-----------|
|--------7--------7-----------7--------7-----7--|
|-----------6--------6-----------6--------6-----|
|--0--------------------0-----------------------|
|-----------------------------------------------|
|-----------------------------------------------|

|-----0--------0-----------0--------0-----------|
|--------3--------3-----------3--------3-----3--|
|-----------2--------2-----------2--------2-----|
|--0--------------------0-----------------------|
|-----------------------------------------------|
|-----------------------------------------------|


(with verse figure)
true the summer’s gone to flake
and all the sugar cane to cake

 

      Bm A 
and deactivate your precious gun
    G 
expose your efforts
 Em F#m Csus2 Dsus2 Esus2 
Eve-ry    golden world is baked

 
(back to verse figure)
she’s a person fast at play
now she’s a planet on display

 

        Bm A 
and revolving like a halo
           G 
she says hello world
     Em F#m Csus2 Dsus2 Esus2 
did you make sense of it today?
               Dsus2 
‘cause it’s okay
                Csus2 Bm Bsus2 
because you’re always on my mind
              Csus2 Bm Bsus2 
yeah, you’re always on my mind
        Csus2 
and I find myself just wasting all my

 
|-----0--------0-----------0--------0-----------|
|--------7--------7-----------7--------7-----7--|
|-----------6--------6-----------6--------6-----|
|--0--------------------0-----------------------|
|-----------------------------------------------|
|-----------------------------------------------|
   time                                with the

 
|-----0--------0-----------0--------0-----------|
|--------8--------8-----------8--------8-----8--|
|-----------7--------7-----------7--------7-----|
|--0--------------------0-----------------------|
|-----------------------------------------------|
|-----------------------------------------------|

   kind


(repeat that figure without lyrics once)
(them strum these for the last two lines)

|-------0-------------------0-----|
|-------7-------------------8-----|
|-------6-------------------7-----|
|-------0-------------------0-----|
|---------------------------------|
|---------------------------------|

you supply my mind with pollution
yeah, supply my mind with pollution

 
(then this last part)
|-----0--------0-----------0-----------0--|
|--------7--------7-----------7--------7--|
|-----------6--------6-----------6-----6--|
|--0--------------------0--------------0--|
|-----------------------------------------|
|-----------------------------------------|


Awesome song, not my tab credit goes to doug! Thanks!

Steve Fauser chords – Diarrhea Planet

 Intro:  F Bb F 
Modern things are like masturbation
 Am Bb   
I don't give a fuck, I don't give a damn
 F 
When you're touching me with a finger
          Am Bb 
but you probably asked for more head, yeah

 F 
What will it take to get you off my back
        Am Bb 
You're not a parasite, you're on fucking crack
 F 
I just wanna go skate with my friends
              Am Bb 
So why don't you get lost and please get "?"

 F Am Bb  x4

 
 F Bb 
 We weren't born to lose
      F C    
 But baby, we still do
 F Bb F C 
 cause theres so much fucking shit to deal with and I quit
 F Bb 
 So give me another beer
              F C 
 We're gonna drink until the sun comes up or at least till theres no beer
 F Bb F C 
 And I believe god will find us, and forgive us for these stupid things


Play F and Bb until the end

Lonely Planet chords – Rainald Grebe

 Lonely Planet

Verse:
 F Dm 
Ich hab Heu gemacht in Kasachstan
        F Dm 
Ich war in Mexico City
                F                                               
Ich war Schneeschippen auf dem Kilimanjaro
                  Dm  
Ich hab Zebras zugeritten
                        C 
Ich fand’s funky


Ich war Tiefseetauchen auf Tuvalu
In Las Vegas war ich zocken
Ich hab Kängurus Beton in den Beutel geschüttet
Die sind einfach nach vorne umgefallen
Das war schön

Bridge:
 Gm 
Und jetzt 
                        Bb 
was soll ich sagen
                          C 
was soll ich sagen
                                  Am 
Ich hab mich gut erholt
                                   Gm 
Der Urlaub war so toll
                             Bb 
Mein Tank war leer
                                               C 
Jetzt ist der Tank wieder voll

Refrain:
              F 
Lonely Planet
              Dm 
Lonely Planet
 Gm C 
Kleiner blauer Ball
               F F/E 
Lonely Planet 
               Dm 
Lonely Planet

 Gm C 
Lonely, lonely lonely
 F 
Lonely Planet
               Dm 
Lonely Planet
 Bb C 
Dreht sich da im All
      Dm 
im All

Verse:

Ich war auf Safari! Ich hab Fotos gemacht
Von Gnus
Irgendwann kam ich mir blöde vor
Und hab nur noch geschaut nur noch geschaut
nur noch geschaut

Ich hab Sex gehabt an der Copacabana
Wir hatten so eine geile Zeit
Sonst hab ich gar nicht so viel gesehen
Aber so viel geträumt, soviel geträumt
Da ist soviel hochgekommen

Bridge:

Und jetzt
was soll ich sagen
was soll ich sagen
Ich hab mich gut erholt
Ich danke Magellan 
Und Vasco Da Gama
Die warn ganz weit vorn

Refrain:

Lonely Planet
Lonely Planet
Kleiner Blauer Ball
Lonely planet
Lonely Planet
Lonely, lonely, lonely
Lonely Planet
Lonely Planet
Dreht sich da im All
im All

Ich war in Nepal im Kloster              beten
Es soll in der Südsee eine Insel geben
Die hat noch keiner betreten
Früher kam der Nikolaus mit dem Schlitten
Und Gott hatte einen Bart
Jetzt steh ich hier auf dem Dach der Welt
Mit meiner Mastercard
Es ist in Ordnung

Lonely Planet
Lonely Planet
Lonely, lonely, lonely
Lonely Planet
Lonely Planet
Kleiner Blauer Ball
Lonely Planet
Lonely Planet
Als Kind wollt ich immer ein Loch bohren
                                     D 
Von hier bis Australien.

Escape From The Prison Planet Tabs by Clutch

 -------------------------------------------------------------------------------
                              Clutch - Escape From The Prison Planet
-------------------------------------------------------------------------------
Album : Escape From L.A  
Tempo : 132
 gwendal.mollo@orange.fr
: newg


Intro / Chorus 
E ||----------------------------------------|-------------------------|
B ||----------------------------------------|-------------------------|
G ||o---------------------------------------|-------------------------|
D ||o---------------------------------------|-------------------------|
A ||----------------------------------3-----|----------------3L-3-----|
E ||-3L----3-----5-----5L----5-----3------5-|----3--5L-5--3--------5--|


---------------------------------------------------|---------|||
---------------------------------------------------|---------|||
---------------------------------------------------|--5--4--o|||
---------------------------------------------------|--5--4--o|||
--------------------------------------3------------|--3--2---|||
--3L----3-----5-----5L----5-----3--------------5---|---------||| x2


Verses / Solo :
Gtr clean        w
E |----------------------------|----------------------------------------||
B |--------------9-------------|----------------------------------------||
G |--------------7-------------|--------------------2-----0--2-----0----||
D |--------------6-------------|----------------------------------------||
A |--------------7-------------|----------------------------------------||
E |--0M----0M-------------0L---|--0--------0M---------------------------|| x8


Interludes : 

E |----------------------------------------|
B |----------------------------------------|
G |----------------------------------------|
D |----------------------------------------|
A |----------------------------------------|
E |--0L-0--0--12----15-12-------12---------|


----------------------------------------|
----------------------------------------|
----------------------------------------|
----------------------------------------|
----------------------------------------|
--10----10-10----10-12----15-12----12---|


----------------------------------------|
----------------------------------------|
----------------------------------------|
----------------------------------------|
----------------------------------------|
--0L-0--0--12----15-12-------12---------|


-------------------------------------------------------------------|
-------------------------------------------------------------------|
-------------------------------------------------------------------|
-------------------------------------------------------------------|
--1-----0-----0-----1-----0-----0-----1-----0-----0-----1----------|
-----------------------------------------------------------------3-|


----------------------------------------|
----------------------------------------|
----------------------------------------|
----------------------------------------|
----------------------------------------|
--0L-0--0--12----15-12-------12---------|


----------------------------------------|
----------------------------------------|
----------------------------------------|
----------------------------------------|
----------------------------------------|
--10----10-10----10-12----15-12----12---|


----------------------------------------|
----------------------------------------|
----------------------------------------|
----------------------------------------|
----------------------------------------|
--0L-0--0--12----15-12-------12---------|


----------------------------------------||
----------------------------------------||
----------------------------------------||
----------------------------------------||
----------------------------------------||
--10----10-10----10-12----10-12---------|| x2


So