Tag: Power Chords

Hey Mario Tabs by Patent Pending

 -------------------------------------------------------------------------------
                             HEY MARIO - Patent Pending
-------------------------------------------------------------------------------
: Joe Doul

Tuning: Standard

This is based on the brilliant tab by PlainOlBrod, but with the power chords tabbed out:

************************************

Verse
e|---------------------------------|
B|---------------------------------|
G|-----9-9-7---7-7-----9-9-7---7-7-|
D|-7---9-9-7---7-7-7---9-9-7---7-7-|
A|-7---7-7-5---5-5-7---7-7-5---5-5-|
E|-5---------------5---------------|


Chorus
e|---------------------------------------------------------------------------|
B|---------------------------------------------------------------------------|
G|-77----99------77----99-99---77----99----44444444-77777--------------------|
D|-77-77-99-44---77-77-99-99---77-77-99-44-44444444-77777--------------------|
A|-55-77-77-44---55-77-77-77---55-77-77-44-22222222-55555--------------------|
E|----55----22------55------------55----22-----------------------------------|


Verse
e|---------------------------------|
B|---------------------------------|
G|-----9-9-7---7-7-----9-9-7---7-7-|
D|-7---9-9-7---7-7-7---9-9-7---7-7-|
A|-7---7-7-5---5-5-7---7-7-5---5-5-|
E|-5---------------5---------------|


Chorus
e|---------------------------------------------------------------------------|
B|---------------------------------------------------------------------------|
G|-77----99------77----99-99---77----99----44444444-77777--------------------|
D|-77-77-99-44---77-77-99-99---77-77-99-44-44444444-77777--------------------|
A|-55-77-77-44---55-77-77-77---55-77-77-44-22222222-55555--------------------|
E|----55----22------55------------55----22-----------------------------------|


Bridge
e|---------------------------------------------------------------------------|
B|---------------------------------------------------------------------------|
G|----77-99-99------77-99-99------77-99------44444444-77777------------------|
D|-77-77-99-99---77-77-99-99---77-77-99-44---44444444-77777------------------|
A|-77-55-77-77---77-55-77-77---77-55-77-44---22222222-55555------------------|
E|-55------------55------------55-------22-----------------------------------|


Chorus
e|---------------------------------------------------------------------------|
B|---------------------------------------------------------------------------|
G|-77----99------77----99-99---77----99----44444444-77777--------------------|
D|-77-77-99-44---77-77-99-99---77-77-99-44-44444444-77777--------------------|
A|-55-77-77-44---55-77-77-77---55-77-77-44-22222222-55555--------------------|
E|----55----22------55------------55----22-----------------------------------|


************************************

Tanks chords – Lets Wrestle

 Lets Wrestle - Tanks
'In The Court Of Wrestling Lets'

: OllietheRocker

Tuning: Standard!

Intro (palm mute power chords then switch to open barre chords on the second time through,
 also on the second time through play the first chord pattern twice rather than changing to Em)

    C Bm F  
e|---------------------------------------------------------------------------|
B|---------------------------------------------------------------------------|
G|-5--5--5--5--5--5--5--5--5--5--5--5--5--5--4--4----------------------------|
D|-5--5--5--5--5--5--5--5--5--5--5--5--5--5--4--4--3--3--3--3--3--3--3--3--3-|
A|-3--3--3--3--3--3--3--3--3--3--3--3--3--3--2--2--3--3--3--3--3--3--3--3--3-|
E|-X--X--X--X--X--X--X--X--X--X--X--X--X--X--X--X--1--1--1--1--1--1--1--1--1-|

             Dm C Em F 
e|---------------------------------------------------------------------------|
B|---------------------------------------------------------------------------|
G|----------7--7--5--5--5--5--5--5--5--5--5--5--5--5--5--5--9--9-------------|
D|-3--3--3--7--7--5--5--5--5--5--5--5--5--5--5--5--5--5--5--9--9--3--3--3--3-|
A|-3--3--3--5--5--3--3--3--3--3--3--3--3--3--3--3--3--3--3--7--7--3--3--3--3-|
E|-1--1--1--X--X--X--X--X--X--X--X--X--X--X--X--X--X--X--X--X--X--1--1--1--1-|

e|---------------------------------------------------------------------------|
B|---------------------------------------------------------------------------|
G|---------------------------------------------------------------------------|
D|-3--3--3--3--3--3--3--3--3--3----------------------------------------------|
A|-3--3--3--3--3--3--3--3--3--3----------------------------------------------|
E|-1--1--1--1--1--1--1--1--1--1----------------------------------------------|


or think of it as, 2 downward strums per beat, 7 beats on C, 1 beat on Bm, 7 on F 
and then 1 beat on Dm etc.

Verse 1
 C Am Dm  
My belief is that we fight and we bleed,
           Am Dm               
And never find what we need to carry on
 C Am Dm 
And my belief is that we lie in the dirt,
               Am Dm C 
And can't get rid of all this hurt and carry on

Chorus
 Em G 
Not a squadron of tanks,
 G C 
Or soldiers of different ranks could save us!
 Em G 
Not a fleet of policemen or,
 G C 
faith or religion could give me the guts to talk to you again

Verse 2
 C Am Dm 
why don't you stop wasting your time,
                   Am Dm 
because I've been wasting my time for far too long.
 C Am Dm 
and when you realize what you have done,
            Am Dm C       
I hope you come and find me and say that you were wrong

Chorus
 Em G 
Not a squadron of tanks,
 G C 
Or soldiers of different ranks could save us!
 Em G 
Not a fleet of policemen or,
 G C 
faith or religion could give me the guts to talk to you again

Bridge
 C Bm F Dm               
oh, oh oh, oh ohhhhh, oooh
 C G F Dm 
oooh hoh-ohoh      ooooh
 C Bm F Dm 
oh, oh oh, oh ohhhhh, oooh
 C G F Dm  
hoh-hoho, oh, oh oooh

 C C 

Chorus
 Em G 
Not a squadron of tanks,
 G C 
Or soldier

Steven Georgiou – You Were Everything chords

 Steven T. Georgiou - You were everything

Intro:  C# ,2x.  G#    RECORD 29 Semi Power Chords
 C# , C# ..., F# 

Remember the times when we were wondering, 
To many questions, to many things to say
Now I am wondering how you’re doing,
Cause I always wanted to say     G# 

Verse 2

 C# , C# ..., F# , G# 
When I sleep, my dreams are always about you
When I hear that song which reminds me of you
 F# , G# 
Memories of you appear in my mind
Memories of which I couldn’t leave behind

Chorus:  C# , C# ..., F# , G# 
You were nice, you were cute, you were everything
You love him, I love you, everything flashing
It haunts me every time I’m about to fade
My mistakes, can’t forget the regrets I made

Cause you are the one I cannot live without
I cannot live without you
Rep Chorus,

Last Man On Earth intro Tabs by Michale Graves

 -------------------------------------------------------------------------------
                             LAST MAN ON EARTH - Michale Graves
-------------------------------------------------------------------------------
Tabbed by: Erwin Fletcher
E-mail: killstacy@gmail.com

Tuning: Standard

Really simple but it sounds complex. A lot of hammer-ons/Pull offs. Repeat it a
few times and thats the into, Then theres some power chords, and then you play
this again for the Chorus.

e|----------------------------------------------------------------------------- |
B|----------------------------------------------------------------------------- |
G|----------------------------------------------------------------------------- |
D|-7h5p7---5h3p5h3p5h3p6-3-3-1-3-6-6-3----------------------------------------- |
A|----------------------------------------------------------------------------- |
E|----------------------------------------------------------------------------- |

************************************

| /   slide up
| \   slide down
| h   hammer-on
| p   pull-off
| ~   vibrato
| +   harmonic
| x   Mute note
| b   Bend
| pb  Pre-bend
| br  Bend release
| pbr Pre-bend release
| brb Bend release bend

************************************

Something Bout Love Chords – David Archuleta

 CAPO 1 
Into:  C#m ,  A ,  E ,  B  (2x)
Verse one: 
 C#m A E B 
Every night it's all the same
 C#m A E 
You're frozen by the phone, you wait
                   B 
Something's changed
 C#m A E B    
You blame yourself every day, you'd do it again 
 C#m A  (stop)
every night

Chorus:
                      
 E C#m 
There's somethin' 'bout love that breaks your heart
                A B 
Woah, oh, oh, oh, it sets you free
                                             
 E C#m 
There's somethin' 'bout love that tears you up
                A B 
Woah, oh, oh, oh, you still believe
            E C#m A 
When the world falls down like rain it'll bring you to your 
   B 
knees
                   E C#m 
Somethin' 'bout love that breaks your heart
                A B 
Woah, oh, oh, oh, but don't give up
                        ( C#m - A  Break
There's something 'bout love

Verse two: Repear Verse 1 chords
 C#m A E B 
When you were young, scared in the night
 C#m A E B 
Waiting for love to come along and make it right
 C#m A E 
Your day will come, the past is gone
                B C#m A 
So take your time, live and let live

REPEAT CHORUS: (SAME) Except the last one just continue forget the break in the last… LOL

Bridge:  all chords have bar even Am (Power chords) LOL again :)
 G#m Am 
Don't fight, don't hide those stars in your eyes
          C#m B 
Let 'em shine tonight, let 'em shine tonight
 G#m Am 
Hang on, hang in for the ride of your life
                  B B  (stop)
It's gonna be alright, hold on tight

Chorus:
                                            
                           E A 
There's somethin' 'bout love that breaks your heart
                B 
Woah, oh, oh, oh

(UP ONE WHOLE STEP)
                                             
                           F Dm 
There's somethin' 'bout love that breaks your heart
               Bb C 
Woah, oh, oh, oh, it sets you free
                                            
                           F Dm 
There's somethin' 'bout love that tears you up
               Bb C 
Woah, oh, oh, oh, you still believe

                     
            F Dm Bb 
When the world falls down like rain it'll bring you to your
   C 
knees
                                             
                           F Dm 
There's somethin' 'bout love that breaks your heart
               Bb C 
Woah, oh, oh, oh, but don't give up
                           F Dm 
There's something 'bout love
               Bb C 
Woah, oh, oh, oh, it sets you free
                                              
                           F Dm  
There's somethin' 'bout love that tears you up
               Bb C 
Woah, oh, oh, oh, you still believe
            F Dm Bb                     
When the world 

Amelia Chords – Tonight Alive V3

 Hey - so the other versions are not quite perfect - so I really wanted to put a version 
that is as close to the real thing as possible

I've worked this out from watching an live acoustic video of the band: 


Hopefully the spacing works out right!

NOTE: Drop C#/Db Tuning - so this is drop D and then all strings down an additional 1/2 step

Verse Chords:
 G/B  - xx908x
 C  -   xx10(ten)08x
 Em  x7x08x
 C * - 10(ten)xx08x

Chorus Chords
 Em7  - 22x0033
 Cadd9  - 3x0033
 D  -    000232
 G  -    555xxxx

Bridge
 G (X) - x10(ten)x0010(ten)
 D/F#  -x9x0010
 Dsus4  - x5x005

Intro /Verse Riff:
      G/B C Em C 
eb|---------|---------|---------|---------|
Bb|-----8---|-----8---|-----8---|-----8---|
Gb|---0---0-|---0---0-|---0---0-|---0---0-|
Db|-9-------|-10------|-7-------|---------| x2
Ab|---------|---------|---------|---------|
Db|---------|---------|---------|-10------|
      x4         x4        x4        x4

Bridge (have a little twiddle)

      G G/F# G G/F# Dsus4 
eb|---10--10|---10--10|---10--10|---10--10|---5---5-|
Bb|---0---0-|----0--0-|----0--0-|----0--0-|---0---0-|
Gb|---0---0-|----0--0-|----0--0-|----0--0-|---0---0-|
Db|---------|---------|---------|---------|---------| x2
Ab|-10--10--|-9---9---|-10--10--|-9---9---|-5---5---|
Db|---------|---------|---------|---------|---------|
      x4         x4        x4        x2    x2


Verse 1: Silence
 G/B 
     I think about you
              C 
every single day
And every time
            Em 
I see your face
I wake and it
              C *
brings me to tears
We hadn't spoken in years
 G/B 
     We were close when we
                  C 
were young and naive
We grew up and we
               Em 
learned other things
                         C *
You'll always be sweet 16


Chorus 1:
              Em7 
And you will always be perfect
You'll always be beautiful
 C 
Our hearts will never forget you
     Em7 
You didn't belong here
And it's become so clear
     D 
Why heaven called your name



Verse 2: Distorted Power chords +clean riff)
 G/B 
     I miss you and it still
              C 
feels like I know you
I've got pictures of us
                 Em 
side by side to show you
But it feels like I owe
     C *
you so much more


Chorus 2: Distorted
              Em 
And you will always be perfect
You'll always be beautiful
 Cadd9 
Our hearts will never forget you
     Em7 
You didn't belong here
And it's become so clear
     D 
Why heaven called your name
             Em7 
And it just doesn't seem right

was it really your time?
        Cadd9 
Are we dreaming?
We'll never let go of you
 Em7 
Wish you were here but
it's becoming clear
      D 
That Earth's just not the
                         Em D 
place for an angel like you
                   C D 
For an angel like you


Bridge:
 G 
You meant so much to so many
                    G/F# 
I'm not quite sure how

to do justice to you
                     G 
If they're ready to say
                     G/F# Dsus4 
goodbye I know i'm not
 G 
You made the news and the
                     G/F# 
papers for days and days
But it hardly seems fair

Rain Tabs by Naxxerian

 This song is in Standard Tuning, enjoy :)


INTRO (Acoustic Finger Picked):

-2---0-2--0---------------------------0------|
--3---------1---0-1--0-----1---------1-1-----|
---2---------0------------3---3-----0---0----|
-0---0-0--0---2----------3-----3---2-----2---| X2
------------3---3-3--3--1-------1-3-------3--|
---------------------------------------------|


INTRO 2/VERSE/CHORUS 1 (Acoustic Chord Strumming):

-2-  ---  ---|
-3-  -1-  -2-|
-2-  -0-  -3-|
-0-  -2-  -3-| Just Strum These Chords In The Style Of The Song
---  -3-  -1-|
---  ---  ---|
 D    C

CHORUS 2 (Electric Power Chords):

-----------------------------------------------------------|
-----------------------------------------------------------|
-7--7--7-7-7----5--5--5-5-5----3--3--3-3-3----5--5--5-5-5--|
-7--7--7-7-7----5--5--5-5-5----3--3--3-3-3----5--5--5-5-5--|
-5--5--5-5-5----3--3--3-3-3----1--1--1-1-1----3--3--3-3-3--|
-----------------------------------------------------------|

THATS THE SONG!!!

Loud Like Love Tabs by Placebo

 -----------------------------------------------------------------------------
                             LOUD LIKE LOVE - Placebo
-----------------------------------------------------------------------------
Tabbed by: Alfie Prior
E-mail: kidneyfeet@gmail.com

Placebo tune up half a step (F A# D# G# C f), I put a capo on the first fret. 

Intro:

Guitar 1
f |-------------------------------------------------------------------------|
C |------0---------0------0---------0------0---------0------0---------0-----|
G#|-----2--------2-------2--------2-------2--------2-------2--------2-------|
D#|----------3-33----3-3----------------------------------------0-00--------|
A#|-3-3-----------------------3-33------------------------------------------|
F |-----------------------------------3-3------3-33----3-3------------------|

Guitar 2 alternates between C# and G# power chords starting on G# at bar 12

Verse: "Love on an atom..."

Same as intro but Guitar 2 only plays once every four bars

Pre-chorus 1: "For all of our youth..."

Guitar 1 + 2
f |-2-2-2-2-2-2-2-3-2-2-2-2-2-2-2-3-0-0-0-0-0-0-0-0-0-0-0-0-0-0-0-0---------|
C |-3-3-3-3-3-3-3-3-3-3-3-3-3-3-3-3-1-1-1-1-1-1-1-1-1-1-1-1-1-1-1-1---------|
G#|-2-2-2-2-2-2-2-2-2-2-2-2-2-2-2-2-0-0-0-0-0-0-0-0-0-0-0-0-0-0-0-0---------|
D#|-0-0-0-0-0-0-0-0-0-0-0-0-0-0-0-0-2-2-2-2-2-2-2-0-2-2-2-2-2-2-2-0---------|
A#|---------------------------------3-3-3-3-3-3-3-3-3-3-3-3-3-3-3-3---------|
F |-------------------------------------------------------------------------|

Chorus: "Breath..."

Same as intro

[Play verse again]

Pre-chorus 2: "For all of our youth..."

Guitars 1 + 2 are the same until bar 16 where guitar 1 plays this:
f |-------------------------------------------------------------------------|
C |-------------------------------------------------------------------------|
G#|------------4---------------------------2--------------------------------|
D#|----------47-7777777777777777---------25-5555555555555555----------------|
A#|-555555557-------------------333333335-----------------------------------|
F |-------------------------------------------------------------------------|

Chorus/Outro: "We are loud like love"

Guitar 2 is the same as in the intro. In the loud part, Guitar 1 plays this:
f |-7-----10-7-------7-------7-------7-----8-7-------7-----8-7--------------|
C |----8--------8-------8-------8-------8-------8-------8-------8-----------|
G#|------------------------7------------------------------------------------|
D#|-------------------------------------------------------------------------|
A#|-------------------------------------------------------------------------|
F |-------------------------------------------------------------------------|



************************************

| /   slide up
| \   slide down
| h   hammer-on
| p   pull-off
| ~   vibrato
| +   harmonic
| x   Mute note
| b   Bend
| pb  Pre-bend
| br  Bend release
| pbr Pre-bend release
| brb Bend release bend

************************************

Waves Chords – A Bird A Sparrow

Tuning:(Standard)EADGBe

Chords used:(it is in power chords)
 C#m  - x46xxx
 B    - x24xxx
 A    - x02xxx
 E    - x79xxx

Intro:

 (Just listen to the original song to know how this goes)

Starting solo:
e|------------------------------------------------------------------------|
B|-------9----7-----4-------5------7---10---------------------------------|
G|------------------------------------------------------------------------|
D|------------------------------------------------------------------------|
A|------------------------------------------------------------------------|
E|------------------------------------------------------------------------|

 C#m - B - A  (X3)
 C#m - B - A - A 

Verse:
 C#m B 
Let's stay here today,

stay here forever.
 C#m B 
And bring on the rain.

With you, I've got cover.

 C#m 
When it's cold outside,
             B 
I know I'm not the only one alone.
 C#m 
And you're the only reason
 B 
why I'll ever come back home.


Chorus:
 A C#m - E 
Baby, let's turn it up now.
 B C#m - B 
Turn me on, and turn it up now.
 A C#m - E 
Baby, let's turn it up now.
 B C#m - B 
Turn me on, and turn it up now.
 A C#m - E B C#m - B 
I'm going crazy without you here lately.
 A C#m - E B 
I've been going crazy for you.
 C#m - B A 
Crazy for you.

Verse:
 C#m            
Breathe slow, I can feel your tremble.
 E B 
Tonight, I'll listen and I'll follow.
 C#m           
My words skip, I fall, I crumble.
 E B    
Don't say a word, 'cause I know.

 C#m 
Breathe slow, I can feel your tremble.
 E B 
Tonight, I'll listen and I'll follow.
 C#m 
My words skip, I fall, I crumble.
 E B 
Don't say a word, 'cause I know.


Chorus:(Same chords)
Baby, let's turn it up now.
Turn me on, and turn it up now.
Baby, let's turn it up now.
Turn me on, and turn it up now.
I'm going crazy without you here lately.
I've been going crazy for you.
Crazy for you.


Bridge:
 C#m 
I feel so lost at sea,
 B A 
but know the wave that'll carry me back to safety.
 C#m 
And I feel so lost at sea,
 B A 
but you're the wave that'll carry me back to safety.

(Baby, turn it up now, turn me on)
Turn it up now.

Chorus:(Same chords)
Baby, let's turn it up now.
Turn me on, and turn it up now.
I'm going crazy without you here lately.
I've been going crazy for you.
Crazy for you.

Let's turn it up,
let's turn it up now.
(Turn it up, turn it up)

Baby, let's turn it up.
(Turn it up, turn it up, up, up)
I'm going crazy, I'm going crazy,
I've been going crazy for you.
Lately I've been missing you.

----------------------------------------------------------------------------
So I get tired of searching for the chords of this beautiful song that 
brings me to study it and know the chords based on how I hear it. 
This is how it came out. I hope that we'll enjoy playing it and somehow 
improve it together.

For a

This Bad Check Is Gonna Stick Chords – Rocket From The Crypt

 ----------------------------------------------------------------------------
         This Bad Check Is Gonna Stick - Rocket From The Crypt
----------------------------------------------------------------------------
Tabbed by: adslam3

Tuning: Standard

I figured this out on my acoustic so it's arranged for one guitar. 
If you want to play electric you could use power chords or stick with 
these chords, your choice. I'm 99.99% sure this correct, but you can choose
where and how you want to play the chords.

INTRO
 F# D Ebm D B F# D Ebm D B 

VERSE
 F# D 
Grab and take it all, the fruit is ripe now
     Ebm D B 
Whatever you want, whatever you need
 F# D 
Steal what you can get, you know that its hardly
     Ebm D B 
Whatever you want, whatever you need

PRECHORUS
 Bb F# Bb F#             
Last holding on
              Bb F# 
Oh don't let go

Oh-oh
     D E 
Whatever you want, whatever you need

CHORUS
     A D 
Oh, She, yeah, she won't let go
 A D 
She, yeah, she won't let go
 A D F# 
She, yeah, she turned everybody around
      D Ebm D B 
All around, all around
      F#m D Ebm D B 
All around, all around, all around, all around

VERSE 2
 F# D 
Throw away the keys, I am defending
     Ebm D B 
Whatever I want, whatever I need
 F# D 
Tear away the skin, it's in there hiding
     Ebm D B 
Whatever I want, whatever I need


PRECHORUS
 Bb F# Bb F#             
Last holding on
              Bb F# 
Oh don't let go

Oh-oh
     D E 
Whatever you want, whatever you need

CHORUS
     A D 
Oh, She, yeah, she won't let go
 A D 
She, yeah, she won't let go
 A D F# 
She, yeah, she turned everybody around
     A D 
Oh, She, yeah, she won't let go
 A D 
She, yeah, she won't let go
 A D F# 
She, yeah, she turned everybody around

THE END

Dead Tabs by Bloody Knees

 My first tab, Relatively new band, (Incredible though!) won't be 100% 
correct but I think it's pretty much there. Very good to play for beginners
learning about power chords and trying to speed up transitions. ENJOY!

e|------------------------|
B|------------------------|
G|---4-4-4444-------------| X3
D|---4-4-4444-66x-44x-----|
A|---2-2-2222-66x-44x-----|
E|------------44x-22x-----|
-
On 4th time play this: 

e|-------------------------------------------------------|
B|-------------------------------------------------------|
G|---4-4-4444------------------------666--4-44444444-----|
D|---4-4-4444-66x-44x--2-2-22--22----666--4-44444444-----|
A|---2-2-2222-66x-44x--2-2-22--22----444--2-22222222-----|
E|------------44x-22x--0-0-00--00------------------------|


Now the first bar of the verse is just bass, after this the guitar comes back in:

e|------------------------------------------------------------------------|
B|----------------------------------------------(eleven)------------------|
G|-----4444444444-/--99999999999-131313131313-111111111111--\-444444444---|
D|-----4444444444-/--99999999999-131313131313-111111111111--\-444444444---|
A|-----2222222222-/--77777777777-111111111111-999999999999--\-222222222---|
E|------------------------------------------------------------------------|



these are the 2 chord progressions. They are both used at different parts of
the song. Hope you enjoy listening to Bloody Knees!

Be Ok Chords – Yu Seong Eun

 ---------------------------------------------------------------------------------------------
                                     Yu Seong Eun - Be OK
                            Official MV :- http://youtu.be/goqxlLpeQ7M

---------------------------------------------------------------------------------------------
Tabbed By : xiTiz

Tuning : Standard

Note: s = slide

Chords used: 

    F5 C5 D5 Bb5 G5     
e|-x-----x-----x-----x-----x---------|
b|-6-----x-----x-----x-----x---------|
g|-5-----5-----7-----x-----x---------|
d|-3-----5-----7-----8-----5---------|
a|-x-----3-----5-----8-----5---------|
e|-x-----x-----x-----6-----3---------|


You can play the regular chords instead of the power chords.
In that case, The chords used will be "F C Dm Bb G".


**Here is my youtube cover for this song:- http://youtu.be/_M7po6tHoIE **


If there is any song you want the tab of then send me a message on my 
youtube channel or UG profile~ C=

Youtube:
http://www.youtube.com/user/xitizhnn

Ultimate-Guitar:
http://profile.ultimate-guitar.com/Xitiz+Rana/

Enjoy ^ ^ ~!! 

-------------------------------------------------------------------------------

~~~~~~
Intro:
~~~~~~

e |---1--1---1--3--5--6--6s8---8--8--8---5--5--5---5--3--5s6--6---6--5--3--5------------|
b |-------------------------------------------------------------------------------------|
g |-------------------------------------------------------------------------------------|
d |-------------------------------------------------------------------------------------|
a |-------------------------------------------------------------------------------------|
e |-------------------------------------------------------------------------------------|

~~~~~~~~~
Plucking:
~~~~~~~~~

e |--------------------------------------------------------------------------6-5------|
b |--6---6---6---6-8-----5---5---5---8-6-----6---6---6---6-5-----6---6---6------------|
g |----5---5---5-----------5---5---5-----------7---7---7------------------------------|
d |----------------------------------------------------------------8---8---8----------|
a |-----------------------------------------------------------------------------------|
e |-----------------------------------------------------------------------------------|

~~~~~~~~
Verse 1: (Play the Plucking) 4x
~~~~~~~~

wonrae geureon georae dadeul
naege marhae deo isangeun
No oh oh Be a be alright
butjabaseo mwol hae jal jinaera
marhae deo isangeun
No oh oh Be o be o

OK~ jugeul geotman gatdadeon nae maeumdo
OK~ kkumeul kkun deushi ijhyeo jyeo gago
I will know you nothing ever
I will know you nothing ever
da al geot gatdeon ni mami geojitmal gata

~~~~~~~
Chorus:
~~~~~~~
 F5 C5 
bing bing bing nan neo eobshido Be OK
 D5 
bing bing bing maemdoneun gieog 
 Bb5 
ijen ijeullae
 F5 
neo eobshi jal sara.
 C5 
dashi dareun namjal manna
 D5 
Beautiful my boy~
 Bb5 
 sarang haetdeon geudae Bye bye

~~~~
Rap:
~~~~ 
        F5 
geurae jal gara gara garago jiugiga
 C5 
himdeureot deon jeonhwa beonhodo
               D5  
gati geoddeon geu gireul honja georeodo
           Bb5 
ijen holga bunhae neo eobshido I’m ok yo~
       F5 
geuri hyeong pyeon eobtji anhatdeon
          C5 
uriui manna mieot janha
deoneun huhoen eobseo
 D5 
saeroun chulbal jeome dashi seoseo
 Bb5 
chugboghae julge ijen Be Ok~

~~~~~~~~
Verse 2: (Play the Plucking ) 4x
~~~~~~~~
miryeon dwoseo mwohae soyong eobseo
No way deo isangeun
No oh oh Be a be alright
sumeul shwil ttaemada hansum man
nae shwida deo isangeun
no oh oh Be a be a

OK~ jugeul geotman gatdadeon nae maeumdo
OK~ kkumeul kkun deushi

Freak Tabs by Kiss

 the rhythms a bit of but if u play along to the track it"ll be easy to figure out enjoy :)


intro
e|------------------------------------------------------------------|
B|------------------------------------------------------------------|
G|------------------------------------------------------------------|
D|----------22--5555-------------22--5-5-5-4-2----------------------|
A|22--5555--00--3333---22--5555--00--3-3-3-2-0----------------------|
E|00--3333-------------00--3333-------------------------------------|

verses

e|---------------------------------------------------------------------|
B|---------------------------------------------------------------------|
G|---------------------------------------------------------------------|
D|--7----5----7---------22---5---5--22---5---4---22---5---5----7-------|
A|--5----3----5---------00-0-3-0-3--00-0-3-0-2---00-0-3-0-3----5-------|
E|---------------------------------------------------------------------|


 chorus
e|------------------------------------------------------------------| x2
B|------------------------------------------------------------------|
G|------------------------------------------------------------------|
D|----------22--5555-------------22--5-5-5-4-2----------------------|
A|22--5555--00--3333---22--5555--00--3-3-3-2-0----------------------|
E|00--3333-------------00--3333-------------------------------------|
bridge
e|-----------------------------------------------------------------|
B|-----------------------------------------------------------------|
G|--5---------2---------5----------2-----2222-2222-----------------|
D|--5---------2---------5----------2-----2222-2222-----------------|
A|--3---------0---------3----------0-----0000-0000-----------------|
E|-----------------------------------------------------------------|

power chords for solo
e|------------------------------------------------------------------|
B|------------------------------------------------------------------|
G|------------------------------------------------------------------|
D|----------22--5555-------------22--5-5-5-4-2----------------------|
A|22--5555--00--3333---22--5555--00--3-3-3-2-0----------------------|
E|00--3333-------------00--3333-------------------------------------|

Mercenary Man Acoustic Chords – Firewind

 Firewind - Mercenary Man (Acoustic Version, Chords)

Tune guitar a whole step down.

Note: Listen to the song to hear the strumming pattern. The chords above the words ARE 
NOT TIMED OUT and are just there are a guide.

There is another tab that shows you how to play the intro lead harmony part, fairly accurately.

Also, the guitar solo featured ONE of the guitar leads. Near the end when 3 guitars kick 
in, it gets a little confusing, so you'll need to figure out the other 2 parts.

Intro:
 Am C F Dm Am C G Am C F Dm F Dm Am  (Barred)    G 

Verse:  F - A - G  (Power chords on  A  string)
Mama take a look at your boy
Face a man without a soul
He is standing in the doorway

Barred:  F Am G 
I'll be gone, before the night is over
I have to go, I have to run to the border

 F Dm 
Lost my way I run in desperation
 F G Em  (Might be an  E ?)
Lost the words I lost communication

 Am C F Dm 
All I see is death beneath my window
 Am C G 
All I need is to heal my broken mind
 Am C F Dm 
I will catch my own wounded shadow
 F Dm Am G F !   Dm !
Just before we leave it all behind

Verse 2:  F - A - G  (Power chords)
Mama keep the faith it's alright
Your boy's a mercenary man
A soldier made of steel

Barred:  F Am G 
A shotgun rings; the wind is calling my name
Fields of gold beneath a blood red sky

Repeat same Prechorus & Chorus

Backing Solo:
 Am Am !   A# !
"All Behind..."

 Bm G Bm A G Em G A Fm 


Solo (Basic idea, just a guide):
e-----------------------|
B-15-14-----15-14-------|
G-------14--------14-12-|
D-----------------------|

e----------------------14--14s15s14-12-|
B-15-14-----15-14----------------------|
G-------14--------14-------------------|
D--------------------------------------|

e------------------------------|
B-15-14-----15-14--------------|
G-------14--------14-s16-14-14-|
D------------------------------|

(3 guitars, you'll need to figure out the other 2)
e----------------------------12------------14s17s17-|
B-10b12--10b12--12b14--12b14----12b14~--------------|
G---------------------------------------------------|
D---------------------------------------------------|

Final Chorus (Up a whole step):
 Bm D G Em  (7th fret)
All I see is death beneath my window
 Bm D A 
All I need is to heal my broken mind
 Bm D G Em  (7th fret)
I will catch my own wounded shadow
 G Em Bm A 
Just before we leave it all behind
 G Em Bm A G Em !
All...      Behind...   Ooooh.....

Final Chord:
E-0
B-3
G-2
D-4
A-2

More Than Anyone Else Tabs by Mostly Sunny

   -----------------------------------------------------------------------------
                                           MORE THAN ANYONE ELSE - by Mostly Sunny
  -----------------------------------------------------------------------------



Heard this song on that Redvines Commercial. Pretty easy song.
Facebook page for Mostly Sunny:  https://www.facebook.com/mostlysunnymusic




Tabbed by: Matheyu
E-mail:  amchguitars@yahoo.com

Tuning: Standard




Intro:

Playing over the power chords


  D#5              A#3             C5
e|---------------------------------------------------------------------|
B|-----8-------8-------8-------8-------8-------8-------8-------8-------|
G|---8---8---8---8---8---8---8---8---8---8---8---8---8---8---8---8-----|
D|-8-------8-------8-------8-------8-------8-------8-------8-----------|
A|---------------------------------------------------------------------|
E|---------------------------------------------------------------------|



   G#5                             A#5
e|---------------------------------------------------------------------|
B|-----8-------8-------8-------8-------8-------8-------8-------8-------|
G|---8---8---8---8---8---8---8---8---8---8---8---8---8---8---8---8-----|
D|-8-------8-------8-------8-------8-------8-------8-------8-----------|
A|---------------------------------------------------------------------|
E|---------------------------------------------------------------------|



These Power Chords Play throughout the verses and chorus:



   D#5             A#3             C5
e|---------------------------------------------------------------------|
B|---------------------------------------------------------------------|
G|---------------------------------------------------------------------|
D|-8-8-8-8-8-8-8-8-8-8-8-8-8-8-8-8-5-5-5-5-5-5-5-5-5-5-5-5-5-5-5-5-----|
A|-6-6-6-6-6-6-6-6-5-5-5-5-5-5-5-5-3-3-3-3-3-3-3-3-3-3-3-3-3-3-3-3-----|
E|---------------------------------------------------------------------|


   G#5                             A#5
e|---------------------------------------------------------------------|
B|---------------------------------------------------------------------|
G|---------------------------------------------------------------------|
D|---------------------------------------------------------------------|
A|-6-6-6-6-6-6-6-6-6-6-6-6-6-6-6-6-8-8-8-8-8-8-8-8-8-8-8-8-8-8-8-8-----|
E|-4-4-4-4-4-4-4-4-4-4-4-4-4-4-4-4-6-6-6-6-6-6-6-6-6-6-6-6-6-6-6-6-----|


SOLO:

   D#5             A#3             C5
e|----------------------------------------------------------------------|
B|-/11/9----8-8/-------------------/3-4---------------------------------|
G|----------------------------------------------------------------------|
D|----------------------------------------------------------------------|
A|----------------------------------------------------------------------|
E|----------------------------------------------------------------------|


   G#5                             A#5
e|---------------------------------------------------------------------|
B|-/11/9----8-8/-------------------11B---------------------------------|
G|---------------------------------------------------------------------|
D|---------------------------------------------------------------------|
A|---------------------------------------------------------------------|
E|---------------------------------------------------------------------|

VERSE:

D#5    A#3        C5
I came out of the pourin rain
           G#5
To try and stop this train
      A#5
Wreck on my brain... Wreck
    D#5    A#3           C5
And I left you. Before I knew you could
G#5
Thought you should
       A#5
Turned out you would


CHORUS:

    D#5    A#3           C5
But I love you more than anyone else
         G#5
It's not hard to tell
    A#5
You know me well
D#5               A#3
Once was mine bu

103 Chords – The Pains Of Being Pure At Heart

 I'm not sure how accurate it is. Power chords and major/minor chords both work. But this 
is the exact chords I use myself.

     F ­5    C Bb Am Gm 
e|------------------------------|
B|------------------------------|
G|------(9)---(7)---(5)---(3)---|
D|--10---10----8-----7-----5----|
A|--8----10----8-----7-----5----|
E|--8----8-----6-----5-----3----|


Intro is same as verse

         F5 C 
You can pray all day to Satan
         Bb C 
You can drive pretty fast
         F5 C 
You can drink with your prescriptions
         Bb C 
But it never comes to pass

   Bb C 
I know you don't believe me
            F5 Bb 
But you're gonna see, you're gonna see
 C 
One hundred and three

You can make marks with a razor
Choke out on the bed
But do you feel a sense of failure
When you just can't end up dead?

I know you don't believe me
But you're gonna see, you're gonna see
One hundred and three

 Bb Am Gm C 
How can I get it through to you?
   Bb Am Gm 
I just don't think your death wish
    C Bb F5  (this F5 is the same F5 in the outro)
Is gonna come, is gonna come true

 F5 C Bb C 
(outro riff)

End on F5

Dealers Call intro Tabs by Wellfear

 Dealer's Call 
By Wellfear
http://www.wellfear.com/

Couldn't find any tabs on these songs so I watched the video and figured out the beginning.  
Someone should help make more Wellfear tabs to get this band out there.
They are a Norwegian metal band started in 2008. "They hold the middle 
ground between the catchy hooks and melodies of Bullet For My Valentine 
and the brutal aggression of Slipknot."


This is a quick metal downpicking section similiar to a lot of Metallica's songs.

pm is palm mute for the bass notes
h and p are hammer-ons and pull-offs

       pm    pm         pm    pm         pm    pm         pm    pm
D|-------------------------------------------------------------------------|
A|-------------------------------------------------------------------------|
F|-------------------------------------------------------------------------|
C|-5p2---5p2---5p2--4p2---4p2---4p2--5p2---5p2---5p2--4p2---4p2---4p2------|
G|-----2-----2----------2-----2----------2-----2----------2-----2----------|
D|-------------------------------------------------------------------------|

       pm    pm         pm    pm         pm    pm        
D|-------------------------------------------------------------------------|
A|-------------------------------------------------------------------------|
F|-------------------------------------------------------------------------|
C|-4p0---4p0---4p0--5p0---5p0---5p0--4p0---4p0---4p0--5h7p5p0-4h5p4p0------|
G|-----0-----0----------0-----0----------0-----0---------------------------|
D|-------------------------------------------------------------------------|

The rhythm guitar for the intro is just the power chords for the 2nd 
and open frets of the G string (or A string in standard)

If anyone needs to ask me any questions, you can email me at medeivalman98@gmail.com

Leckt Mich Tabs by Die Drogen

 



Leckt Mich von Die Drogen

Intro:

-------------------------------------------------------------------------------|
-------------------------------------------------------------------------------|
-------------------------------------------------------------------------------|
9-9-9-9-9---4---4---12-12-12-12-12---4---4---9-9-9-9-9---4---4---12-11-10-9----|
-------------------------------------------------------------------------------|
7-7-7-7-7---2---2---11-11-11-11-11---2---2---7-7-7-7-7---2---2---10- 9-  9- 7--|


Vers 1 (Power Chords):

h            F#       D
   Genug grau in grau
           F#          h
Genug Autostau
                   F#    D   F#  h
Ich will nicht mehr
           F#           D                   F#        h
Genug Depression, Selbstmord, Agression
                   F#   D   F#  h
Es langweilt sehr
          F#            D
Nur Regen - kein Blau
                   F#             h
Was geht? - keinen Tau
                   F#    D    F#   h
Was läuft verkehrt?
               F#              D
Der Lärm dieser Stadt
                  F#                   h
Macht mich nicht mehr satt
                     F#  D   C#
Ich kann nicht mehhhhhhr!


Chorus:

h                G
Leckt mich! Leckt mich!
          C#         e
Ich verlass’ die Stadt
h               G
Heut noch, heut noch
           C#       e
Hau ich ab von hier


Vers 2 (Power Chords):

h            F#                 D
   Ich hör nicht mehr zu
            F#             h
Ich find’ keine Ruh’
               F#      D     F#   h
Ist es das wert?
               F#                D
Denn hier bin ich klein
             F#    h                           F#   D   F#   h
Ein Waise im Heim, der nichts erfährt
              F#         D                       F#         h
Von tausend Phobien den Angstschweiß verliehen
                       F#   D  F#  h
Das Glück verwehrt
           F#      D
Genug ist genug!
           F#          h
Genug Selbstbetrug!
                    F#      D  C#
Ich mag nicht mehhhhhhhr!



h                G
Leckt mich! Leckt mich!
          C#         e
Ich verlass’ die Stadt
h               G
Heut noch, heut noch
           C#       e
Hau ich ab von hier
h                G            C#      e
Leckt mich! Leckt miiiiiiiiiiiiiiiiiiiiiich!
h                G
Leckt mich! Leckt mich!
           C#       e     (Power Chords) E  D#  D  C#
Hau ich ab von hier

(Solo)

h                G
Leckt mich! Leckt mich!
          C#         e
Ich verlass’ die Stadt
h               G
Heut noch, heut noch
           C#       e
Hau ich ab von hier
h                G            C#      e
Leckt mich! Leckt miiiiiiiiiiiiiiiiiiiiiich!
h                G
Leckt mich! Leckt mich!
           C#       e     (Power Chords) E  D#  D  C#
Hau ich ab von hier


h                G
Leckt mich! Leckt mich!
          C#         e
Ich verlass’ die Stadt
h               G
Heut noch, heut noch
           C#       e
Hau ich ab von hier
h                G            C#      e
Leckt mich! Leckt miiiiiiiiiiiiiiiiiiiiiich!
h                G
Leckt mich! Leckt mich!
           C#       e     (Power Chords) E  D#  D  C# x 2, e
Hau ich ab von hier


___________________________________________________________
WEB.DE DSL SOMMER-SPECIAL: Surf & Phone Flat 16.000 für
nur 19,99 €/mtl.!* http://produkte.web.de/go/DSL_Doppel_Flatrate/2

I See You Tabs by Luke Bryan

 Luke Bryan,  "I See You"

This song is all straight power chords:
    D#m  B  F#  C#  A#m
e|---11--7--2---9----6---|
B|---11--7--2---9----6---|
G|---11--8--3---10---6---|
D|---13--9--4---11---8---|
A|---13--9--4---11---8---|
E|---11--7--2---9----6---|


(intro)
e|------------------------------------------------------------|
B|-s4---2---2--------------------s4---2---2-------------------|
G|----3---3---3-1-1-1-3-1-----------3---3---3-1-1-1-3-1-------|
D|------------------------4-1-5-------------------------4-1-5-|
A|------------------------------------------------------------|
E|------------------------------------------------------------|

2x
D#m  B  F#  C#  


(verse)
D#m               B
  Roll in the bar,  me and my crew
F#                 C#
  Their little plan to get me over you 
D#m
  They're hookin’ me up, yeah
B                 F#
  Buyin’ me drinks with a thousand girls 
C#
  There's just one thing


(chorus)
C# D#m                                B
      I can't go anywhere, I can't do anything
            F#                        C#
No, I can't close my eyes without you in my dreams
                D#m                     B
You won't leave me alone, even though I know you're gone
        F#                C#
I look around for someone new, but I see you
B
 Jumpin’ up there with the band
C#
 Takin’ me by the hand
D#m
 Hey boy, come dance with me
A#m                 B
 Stuck like a melody in my head in the bed of my truck
       C#                                        D#m  B  F#  C#,
By the light of the midnight moon baby, I see you


(verse)
D#m                       B
  Don't know what you did,  but you done it good
F#                       C# 
  You don't know how bad  that I wish I could
D#m                        B
  Delete you from my phone,  find a girl and take her home
F#                           C#
  But there's just one thing wrong


(chorus)
C# D#m                                B
      I can't go anywhere, I can't do anything
            F#                        C#
No, I can't close my eyes without you in my dreams
                D#m                     B
You won't leave me alone, even though I know you're gone
        F#                C#
I look around for someone new, but I see you
B
 Jumpin’ up there with the band
C#
 Takin’ me by the hand
D#m
 Hey boy, come dance with me
A#m                 B
 Stuck like a melody in my head in the bed of my truck
       C#
By the light of the midnight moon, baby, I see you


(instrumental-bridge)
2x
D#m  B  F#  C#

D#m         B
  Your lips,  your eyes
C#
Girl, since you told me goodbye


(chorus-out)
(acoustic) D#m                  B
I can't go anywhere, I can't do anything
            F#                        C#
No, I can't close my eyes without you in my dreams
(electric)      D#m                     B
You won't leave me alone, even though I know you're gone
        F#                C#
I look around for someone new, but I see you
B
 Jumpin’ up there with the band
C#
 Takin’ me by the hand
D#m
 Hey boy, come dance with me
A#m                  B
 Stuck like a melody in my head in the bed of my truck
       C#                                        D#m  B  F#  C#,
By the light of the midnight moon baby, I see you             (oh-oh-oh-ohh)
                D#m  B  F#  C#
Baby, I see you              baby, I see you

Run Enemy Tabs by Shearer

 -------------------------------------------------------------------------------
                             RUN ENEMY - Shearer
-------------------------------------------------------------------------------
http://www.shearer.de/

Tabbed by: Jan Wartenberg

Tuning: Standard

(Intro)
C# F# A# F#

Only bass notes:
e ------------------------------------|
B ------------------------------------|
G ------------------------------------|
D ------------------------------------|
A ---4-4-4-4-4---------1-1-1-1-1------|
E --------------2-2---------------2-2-|

C# F# A# F# (only bass)
i've tasted fruit, forbidden you
i'm lost in love, entwined around you

A                B                    (full power chords)
don't walk into, don't run into
C#              E
wild medicines will fly us through
A          B            F#
run enemy, we're comin' true

C# F# A# F#
being near to you, getting lost in you
i cannot ever get enough of you

A                B             (muted, or only bass note)
don't walk into, don't run into
C#              E
wild medicines will fly us trough
A          B            F#
run enemy, we're comin' true

       A                   B          (full power chords)
and it feels like there is no one left
        C#                    E
when we break into the hidden chest
       A                B
when i left you like a tender bloom
     C#                   E
my heart gets weak and i loose control

A   B   C#

C# F# A# F# (again bass)

C# F# A# F#
the outer space, or just this place
can't capture some, or a hint of your grace

A                B             (palm muted, or only softly hit)
don't walk into, don't run into
C#              E
wild medicines will fly us trough
A          B            F#
run enemy, we're comin' true

       A                   B          (full power chords)
and it feels like there is no one left
        C#                    E
when we break into the hidden chest
       A                B
when i left you like a tender bloom
     C#                   E
my heart gets weak and i loose control

A   B   C#


(interlude)                            (3x)
e -------------------------------------|
B -------------------------------------|
G -------------------------------9---9-|
D ----7---7---9--9----11---11----------|
A -----------------------------7---7---|
E --5---5---7---7---9----9-------------|

alternatively                          (3x)
e ---------------------------------------|
B ---------------------------------------|
G ---------------------------------9---9-|
D ----7---7---9---9-----11----11--9------|
A ---7-------9--------11---------7---7---|
E --5---5---7---7---9------9-------------|

F# C# E B (4x) (full power chords, figure out rhythm)

       A                   B           (muted, or only bass note)
and it feels like there is no one left
        C#                    E
when we break into the hidden chest
       A                B
when i left you like a tender bloom
     C#                   E
my heart gets weak and i loose control

A B C# E
and i feel your flesh and i smell the air
i unbolt my heart to let you share
i am ready to dissolve into you

(last part twice, with full power chords when repeated)

(outro)
A B C# E