Tag: power

Maybe Its The Power Of Love chords – Blackjack

 SONG:   MAYBE IT'S THE POWER OF LOVE
ARTIST: BLACKJACK
TAB BY: DON CZARSKI
EMAIL:  GUITARZAN7@HOTMAIL.COM


            MAYBE IT'S THE POWER OF LOVE
                    BLACKJACK


INTRO:
          *RIFF* 
   Dsus4 D 
E -----------------------
B --------8------8--7----
G ------7------7---------
D ----7------7-----------
A --5--------------------
E -----------------------


VERSE:
          Am Fmaj7 G 
When it comes to giving you the best of me
 F G Fmaj7 G 
  I don't know why, I don't know why
                      Am 
I don't even have to try

  E Am Fmaj7 
When it comes to holding true
                G F  
These words I say
    G Fmaj7 G 
I look at you, one look at you
                     Am   
Can I turn my head away


PRE-CHORUS:
            F 
With the sound of your voice
            G 
Like the whispering wind
             F  
Don't you know I'll be there
          G               D*
When you call, anytime you call

   Dsus4 D 
E -----------------------
B --------8------8--7----
G ------7------7---------
D ----7------7-----------
A --5--------------------
E -----------------------


CHORUS:
  A Fmaj7 
Maybe it's the power of love
  A Fmaj7 G 
Maybe ya can feel it when you get enough
  A Fmaj7 
Maybe it's the power of love
         D*
I don't know

   Dsus4 D 
E -----------------------
B --------8------8--7----
G ------7------7---------
D ----7------7-----------
A --5--------------------
E -----------------------


VERSE:
          Am Fmaj7 
When it comes to needing you
              G F  
I call your name
      G Fmaj7 G 
And you'll be there, you'll be right there
                              Am E   
Shining through the pouring rain

  E Am Fmaj7 
When it comes to seeing through
             G F G Fmaj7 
The fool in me,  one thing I found
                  G 
One thing I've found
                          Am 
Lover, you never let me down


PRE-CHORUS:
            F 
When the sound of your voice
       G 
Oh, whispering wind
          F 
Lets me know you'll be there
        G               D*
When I call, anytime I call

   Dsus4 D 
E -----------------------
B --------8------8--7----
G ------7------7---------
D ----7------7-----------
A --5--------------------
E -----------------------


CHORUS:
  A Fmaj7 
Maybe it's the power of love
  A Fmaj7 G 
Maybe ya can feel it when you get enough
  A Fmaj7 
Maybe it's the power of love
         D* 
I don't know

   Dsus4 D 
E -----------------------
B --------8------8--7----
G ------7------7---------
D ----7------7-----------
A --5--------------------
E -----------------------


INSTRUMENTAL SOLO:
 G A Fmaj7 G F G Fmaj7 G Am E Em Am Fmaj7 G F G F G D 


CHORUS:
  A Fmaj7 
Maybe it's the power of love
  A Fmaj7 G 
Maybe ya can feel it when you get enough
  A Fmaj7 
Maybe it's the power of love
          D

All Power To Slaves Tabs – Cky V5

   
  CKY - All Power To Slaves
  "An Answer Can Be Found"
   Eric Jenssen (1ndustry)
  http://www.youtube.com/user/campkillyourshelf

  **    Tuning: DGCFAD (whole step down)

  Tabbed while watching the instructional DVD that Deron Miller made.
  If you think something is wrong or needs improvement, please comment AFTER you've
  watched the video yourself so you can compare the two. If you don't have the DVD,
  Deron is still selling copies of it on his website http://ckyrockandmetal.bigcartel.com/
  
  **    This tab does not include the solo.

  0:00 INTRO
  0:15 PRE-CHORUS
  0:30 INTRO
  0:45 PRE-CHORUS
  0:59 CHORUS
  1:31 INTRO 
  1:46 PRE-CHORUS
  1:59 CHORUS
  2:31 INTRO (solo)
  2:38 PRE-CHORUS (solo)
  2:53 CHORUS

  0:00 - 0:14
  INTRO

d|---------------------------------------------------------------------|
A|---------------------------------------------------------------------|
F|----------------------4-3-----------------------------4-3-----6---8--|  
C|------------4-----4-6-----4---4-------------4-----4-6-----4-4---4----|   (2x)
G|----6-4-2-------------------6-------6-4-2----------------------------|
D|--4-------4---2-0-----------------4-------4---4-2--------------------|


  0:15 - 0:29
  PRE-CHORUS

d|---------------------------------------|\
A|---------------------------------------| \
F|---------------------------------------|  \
C|--9-----9h11p9---13-13-11-9-11-9----9--|   \
G|--7-7-7--------9-11--------------11----|    \
D|---------------------------------------|     \
                                              (2x)
d|---------------------------------------|     /
A|---------------------------------------|    /
F|---------------------------------------|   /
C|-11-----9h11p9---13-13-11-9-11-9----9--|  /
G|--9-9-9--------9-11--------------11----| /
D|---------------------------------------|/


  0:30 - 0:44
  INTRO

d|---------------------------------------------------------------------|
A|---------------------------------------------------------------------|
F|----------------------4-3-----------------------------4-3-----6---8--|  
C|------------4-----4-6-----4---4-------------4-----4-6-----4-4---4----|   (2x)
G|----6-4-2-------------------6-------6-4-2----------------------------|
D|--4-------4---2-0-----------------4-------4---4-2--------------------|


  0:45 - 0:58
  PRE-CHORUS

d|---------------------------------------|\
A|---------------------------------------| \
F|---------------------------------------|  \
C|--9-----9h11p9---13-13-11-9-11-9----9--|   \
G|--7-7-7--------9-11--------------11----|    \
D|---------------------------------------|     \
                                              (2x)
d|---------------------------------------|     /
A|---------------------------------------|    /
F|---------------------------------------|   /
C|-11-----9h11p9---13-13-11-9-11-9----9--|  /
G|--9-9-9--------9-11--------------11----| /
D|---------------------------------------|/


  0:59 - 1:30
  CHORUS

d|--------------------|-----------------------------------------------|
A|--The first riff is-|-----------------------------------------------|
F|--only played once--|--------------------4-6p4h6-8p6h8-6-4----------|
C|--------------------|--8-6-4-6-4-----4/6-------------------4/6/4/6--|   (4x)
G|--4--4-4-4-6-6-9-9--|--6-4-2-4-2-6-4--------------------------------|
D|--------------------|------------4-2--------------------------------|
 PM:.  . . . . . . .     . . . . . . .

d|--------------------------------------------------------------------|
A|-The part above goes 4 times, but-----------------------------------|
F|-the 3rd and 4th time, this is-----------------------------6/8/6/8--|
C|-played underneath as a harmony------4/6-6-8p6h8-9p8h9-8-6----------|   (2x)
G|--------------------------------------------------------------------|
D|--------------------------------------------------------------------|

d|-------------|
A|-------------|
F|-------------|
C|--8-9-8-6-4--|

Power In The Name Of Jesus chords – Ascend The Hill

 Intro:    A   -   E 

Verse:
       C#m A E 
I was far away from you
  C#m A E 
Jesus brought me near
       C#m A E 
I was broken off from you
 C#m A E 
Jesus brought me near

Pre-Chorus:
    B A B A                  
My hope, my song my sacrifice of praise is Christ crucified for me
    B A B A                
My strength, my boast, my sacrifice of praise is the mention of your name


Chorus:
 E   -   G#m   -   F#m   -   C#m   -   A 
Jesus, Jesus, the mention of Your name
 E  -  G#m   -   F#m   -   C#m   -   C#m 
Jesus


Bridge:
           A E 
There is power in the name (x4)

 B  -  A   -   B  -  A 
Jesus,    Jesus (x2)

Absofacto – No Power Tabs

 -------------------------------------------------------------------------------
                                            NO POWER - Absofacto
-------------------------------------------------------------------------------
: tunietunes

Tuning: Drop-D  |D-A-D-G-B-E|

Intro/Verse (Repeats throughout the song)

e|------------------------------------------------------|
B|--5--8--5-8--------------------7----7-----------------|
G|---------------4--7--4-7----7-----7---------6----6----|
D|-----------------------------------------7-----7------|
A|------------------------------------------------------|
D|------------------------------------------------------|

e|------------------------------------------------------|
B|---------------------------------4---4---4--5--7------|
G|------9-----9-------4----4----4----4---4--------------|
D|--10-----10------5-----5------------------------------|
A|------------------------------------------------------|
D|------------------------------------------------------|


Riff Between 1st & 2nd Verse

e|--------10p7-----------------10p7---------------------|
B|----5/8------8\5-7-8----8/10------8\7-5---------------|
G|----------------------------------------7-------------|
D|------------------------------------------------------|
A|------------------------------------------------------|
D|------------------------------------------------------|

e|--------10p7------------------------------------------|
B|----5/8------8\5-7-8---5-7-8---7-5--------------------|
G|-----------------------------------7------------------|
D|------------------------------------------------------|
A|------------------------------------------------------|
D|------------------------------------------------------|

Intro/Verse extends before Chorus

e|-------------------------------------------------------------|
B|-------------------------------------------------------------|
G|------9------9-------4-----4--------9------9-------4-----4---|
D|--10-----10-------5-----5-------10-----10-------5-----5------|
A|-------------------------------------------------------------|
D|-------------------------------------------------------------|

e|-----------------------------------------|
B|--------------------4---4---4--5--7------|
G|------9-----9----4----4---4--------------|
D|--10-----10------------------------------|
A|-----------------------------------------|
D|-----------------------------------------|


Chorus

e|-----------------------------------------------------------------|
B|-----------------------------------------------------------------|
G|-----------------------------------------------------------------|
D|--7--7---5--5---0-------5------777777777--5-5-55--9-9-9-4-4-4----|
A|--7--7---5--5---0---5h7---7----777777777--5-5-55--7-7-7-5-5-5----|
D|--7--7---5--5---0--------------777777777--5-5-55-----------------|

e|-----------------------------------------------------------------|
B|-----------------------------------------------------------------|
G|-----------------------------------------------------------------|
D|--7--7---5--5---0-------5------777777777--5-5-55-----------------|
A|--7--7---5--5---0---5h7---7----777777777--5-5-55----0-2-3-5-6-7--|
D|--7--7---5--5---0--------------777777777--5-5-55--5--------------|

Order:

Intro/Verse x4
Riff x2
Intro/Verse x2
Chorus x1
Intro/Verse x3
Chorus x2
First half of Intro/Verse repeats

Lyrics:

Heard every word
you whispered miles away,
some were obscure
but others struck my good ear plain as day.

The cardiograph beeped a rhythm I could shuffle to,
they beat down the door
well I don't owe you anything anymore
I'm sure that you're awfully sore,
you won the battle but lost the war

No one's lording over me now,
(they ain't got no power)
they ain't got no power over me now

I shot straight off the edge,
I guess the world is flat after all
that's what you said it's jus

No Power In The Water chords – The Purple Hulls

 http://thepurplehulls.com/

CAPO 3


CHORUS:

             G D                
There's no power in the water 

            C G Em D 
Be it the mighty Mississippi or the Jordan when it floods

             G D                
There's no power in the water

           C D G 
To take away our sin the power is in the blood



SHORT INTERLUDE:  

 G D C D G 



VERSE 1:

  G D G 
God sent John the Baptist, to preach and make a way

          C G C 
For the Savior who would save the whole world through

       G D G 
John baptized with water, said One more powerful would come

                C D G 
But there was something even John the Baptist knew



CHORUS:

             G D                
There's no power in the water 

            C G Em D 
Be it the mighty Mississippi or the Jordan when it floods

             G D                
There's no power in the water

           C D G 
To take away our sin the power is in the blood



INTERLUDE:

 G D C G Em D G D C D G 



VERSE 2:

         G D G 
At the pool of Bethesda, Jesus met a man

          C G C 
With an illness forty years could not dispel

         G D G 
He was waiting by the water to be healed when Jesus said

      C D G 
Take up your bed and walk, you've been made well



CHORUS:

             G D                
There's no power in the water 

            C G Em D 
Be it the mighty Mississippi or the Jordan when it floods

             G D                
There's no power in the water

             C D G 
To make us new again, the power is in the blood



INTERLUDE:

 G D C G Em D G D C D G 



FINAL CHORUS:

             A E                      
There's no power in the water 

            D A F#m E 
Be it the mighty Mississippi or the Jordan when it floods

             A E                
There's no power in the water

           D E A 
To take away our sin, the power is in the blood

             D E D A 
To make us new again, the power is in the bloooooooooooooooooooood

Mighty Is The Power chords – Praise And Worship

 Intro:
 E A2 E A2 

Verse 1:

 E  
What can take a dying man and 
 C#m7 
Raise him up to life again?
 A2 
What can heal a wounded soul?
 Bsus 
What can make us white as snow?
 E  
What can fill the emptiness?
 C#m 
What can mend our brokeness?
 A2 B 
Brokeness

Chorus:
 A2 B E 
Mighty, Awesome, Wonderful
 A2 E Bsus 
Is the Holy Cross
 A2 B E 
Where the Lamb laid down his life
 A2 E B 
To lift us from the fall
        A2 C#m B E 
Mighty is the power of the cross

Verse II:
 E 
What restores our faith in God?
 C#m 
What reveals the Father's love?
 A2  
What can lead the wayward home?
 B 
What can melt a heart of stone?
 E 
What can free the guilty ones?
 C#m 
What can save and overcome
 A2 B 
Overcome


Bridge:
 A2 E A2 
It's a miracle to me, (It's a miracle to me)
                   E A2 
It's still a mystery, (It's still a mystery)
                   E 
It's a miracle to me
               F#m 
The Power of God 
               B  
For those who believe

Kill The Power Tabs by Skindred

 Skindred: Kill The Power

: mysticguitar77

YouTube Channel: MysticGuitar77

Date last modified: January 20, 2014

Tuning: Drop A# (A#,F,A#,D#,G,C)

Riff 1
 C|--------------------------------------------------------------------|
 G|--------------------------------------------------------------------|
D#|--------------------------------------------------------------------|
A#|--------------------------------------------------------------------| x2
 F|--------------------------------------------------------------------|
A#|-x-0-0-6/12\1/12-x-0-0-6/12\1/12-x-0-0-6/12\1/12-x-10-10-10-x-6-6-6-|

 C|--------------------------------------------------------|
 G|--------------------------------------------------------|
D#|--------------------------------------------------------|
A#|--------------------------------------------------------| x2
 F|--------------------------------------------------------|
A#|-x-0-0-3*-3*-x-0-0-3*-3*-x-0-0-3*-3*-x-10-10-10-x-6-6-6-|

Play Riff 1 x1

Note: The natural harmonic is played somewhere between frets 3 and 4,
      depending on how your guitar is set-up, the harmonic could be in a
      slightly different spot. On my guitar, it's slightly to the left of
      the fret 3 and 4 divider.

(no guitar in verses)

Riff 2   "No retreat and no surrender..."
 C|----------------------------------------------------------|
 G|----------------------------------------------------------|
D#|----------------------------------------------------------|
A#|-5--5--5--5--3--3--8--8--5--5--5--5--3-3-3-3-10-10-10-10\-|
 F|-5--5--5--5--3--3--8--8--5--5--5--5--3-3-3-3-10-10-10-10\-|
A#|-5--5--5--5--3--3--8--8--5--5--5--5--3-3-3-3-10-10-10-10\-|

(no guitar through this part of the verse either)

Play Riff 1 x1   "We're runnin' it, gunnin' it..."

(no guitar in verse once again)

Riff 3   "No retreat and no surrender..." (almost the same as Riff 2)
 C|--------------------------------------------------------------|
 G|--------------------------------------------------------------|
D#|--------------------------------------------------------------|
A#|-5--5--5--5--3--3--8--8--5-5-5-5-5-5-5-5-3-3-3-3-10-10-10-10\-|
 F|-5--5--5--5--3--3--8--8--5-5-5-5-5-5-5-5-3-3-3-3-10-10-10-10\-|
A#|-5--5--5--5--3--3--8--8--5-5-5-5-5-5-5-5-3-3-3-3-10-10-10-10\-|

Play Riff 1 x1   "We're runnin' it, gunnin' it..."

(just samples and drums through about the first 30 seconds of the bridge)

Solo/lead   "We won't surrender..."
 C|-----17-17-------17-17-------17-17-------17-17-------|
 G|-/15-------15-15-------15-15-------15-15-------15-15-|
D#|-----------------------------------------------------|
A#|-----------------------------------------------------|
 F|-----------------------------------------------------|
A#|-----------------------------------------------------|

 C|-20-20-------20-20-------20-20-------20-20-------|
 G|-------15-15-------15-15-------15-15-------15-15-|
D#|-------------------------------------------------|
A#|-------------------------------------------------|
 F|-------------------------------------------------|
A#|-------------------------------------------------|

 C|-22-22-------22-22----------------------20-20-------20-20-------|
 G|----------------------------------------------15-15-------15-15-|
D#|-------19-19--------19-19-19\7-7--7-7-7-------------------------|
A#|----------------------------------------------------------------|
 F|----------------------------------------------------------------|
A#|----------------------------------------------------------------|

 C|-18-18-------17-17-------17-17-------17-17-------17-17-------|
 G|-------15-15-------15-15-------15-15-------15-15-------15-15-|
D#|-------------------------------------------------------------|
A#|-------------------------------------------------------------|
 F|-------------------------------------------------------------|
A#|-------------------

Power Of God chords – Praise And Worship

 G Gsus 
WELL IT BURNS LIKE A RAGING FIRE FROM MY HEAD DOWN TO MY FEET
                F C G 
IT MUST BE THE POWER OF GOD FLOWIN' THROUGH ME
                                    Gsus 
OH MY SPIRIT'S RISIN' HIGHER AS MY ARMS STRETCH OUT AS WINGS
                F C G 
IT MUST BE THE POWER OF GOD FLOWIN' THROUGH ME
CHORUS
                G C G C 
IT MUST BE THE POWER OF GOD FLOWIN' THROUGH ME
                F C D 
IT MUST BE THE POWER OF GOD FLOWIN' THROUGH ME
           G C G C 
THERE'S A WIND THAT BLOWS THROUGH MY SOUL AS I DANCE BEFORE MY KING
                F C G 
IT MUST BE THE POWER OF GOD FLOWIN' THROUGH ME

       G Gsus 
OH IT LEAVES MY SOUL ON FIRE FROM THE SPARK OF JOY I BRINGS
                F C G 
IT MUST BE THE POWER OF GOD FLOWIN' THROUGH ME
         G Gsus 
IT'S AN UNCONTROLLED DESIRE TO DANCE AND SHOUT AND SING
                F C G 
IT MUST BE THE POWER OF GOD 

Great In Power chords – Praise And Worship

 Intro:   D D 
praise Him you heaven and all that's above
praise Him you angels and heavenly host
 G 
let the whole earth praise Him
 D 
praise Him the sun, moon and bright shining stars
praise Him you heaven and waters and skies
 G 
let the whole earth Praise Him

Chorus
 D Bm 
Great in Power Great in Glory
 G Bm A 
Great in Mercy King of Heaven
 D Bm     
Great in Battle Great in Wonder
 G Bm A 
Great in Zion King over all the earth 

Repeat All
Repeat Chorus

The Power And The Glory chords – Praise And Worship

 VERSE 1:
 D G2 
 This grace is mine, this glory, earthbound heaven sent
 D G2 
 This plan divine, this life this light that breaks my night
 Bm7 A6 G2 G/A D2 G2 
 The Spirit of God, Heaven falls like a dove to my heart.

 VERSE 2:
 D2 G2 
 This love is mine, so undeserved, this glorious name
 D G2 Bm7 
 This Son, this God, this life, this death, this victory won.
                     A6 G2 G/A D A/C# 
 Forgiveness has flowed as this grace that is mine fills my heart____.

CHORUS:
     G2/B G G/A D A2/C# 
The power and the glory of Your name
     G2/B G G/A D A/C# 
The power and the glory of Your name
     G2/B G A Bm 
The power and the glory of Your name,
      A6 G2 G/A D2 G2   ( D )
The name of the Lord, the Son of God.

VERSE 3:
This life is mine, so perfect and so pure, this God in me,
This glorious hope from earth to heaven, death to life.
This future assured and secured by this love in my heart.

Power Of Your Love chords – Praise And Worship

 G D/F# Em Bm Em 
Lord, I come to You, let my heart be changed, renewed,
 D C D Em D 
Flowing from the grace, That I found in You
 G D/F# Em Bm Em 
Lord, I've come to know, The weaknesses I see in me,
 D C D C/G G      
Will be stripped away, By the power of Your love


 C Em D C/G G D/F# Em G/D 
Hold  me close, Let Your love surround me
 C Em D G Am7 G/B 
Bring me near, Draw me to Your side
     C Em D C/G G 
And as   I wait, I'll rise up like the eagle
            D/F# Em D C                
And I will soar with You, Your Spirit leads me on
        D C/G G 
In the power of Your Love


Lord unveil my eyes, Let me see You face to face
The knowledge of Your love, As You live in me
Lord renew my mind, 
As Your will unfolds in my life
In living every day, In the power of Your Love

The Power Of Love chords – Jennifer Rush V3

 Bb 
 The whispers in the morning
                    Gm   
 Of lovers sleeping tight
                      Bb 
 Are rolling by like thunder now
                    F 
 As I look in your eyes
                    Bb 
 I hold on to your body
                         Gm 
 And feel each move you make
                         Eb 
 Your voice is warm and tender
                          F 
 A love that I could not forsake

                  Bb 
 'Cause I'm your lady
                 Eb 
 And you are my man
                     Cm 
 Whenever you reach for me
                          F 
 I'll do all that I can

                           Bb  
 Even though there may be times
                   Cm 
 It seems I'm far away
                   Eb 
 But never wonder where I am
              Bb F 
 'Cause I am always by your side

                  Bb 
 'Cause I'm your lady
                 Eb 
 And you are my man
               Cm 
 Whenever you reach for me
                     F 
 I'll do all that I can

                   Bb  
We're heading for something
                       Eb 
 Somewhere I've never been
                 Cm 
 Sometimes I am frightened
          Bb 
 But I'm ready to learn
 F Eb Bb 
  'Bout the power of love

 Eb F Bb 
  The sound of your heart beating
 Eb F Gm 
   Made it clear suddenly

 Eb F Bb F 
   The feeling that I can't go on
 Eb F 
   Is light years away

                  Bb    
 'Cause I'm your lady
                 Eb       
 And you are my man

               Cm 
 Whenever you reach for me
                            F 
 I'm gonna do all that I can

                    Bb 
 We're heading for something
                       Eb 
 Somewhere I've never been
                 Cm 
 Sometimes I am frightened
          Bb 
 But I'm ready to learn
            Eb 
 'Bout the power of love
 
                  Bb 
 Oh the power of love
                Eb 
 The power of love
    
 The power of love....[repeat until faded out]

Hes Got The Power chords – The Exciters

 He's Got The Power:The Exciters.
#57 on BB Hot 100 on UNITED ARTISTS 
Records in 1963.
#1.
 G#m7 
He makes me do things I don't wanna do.

He makes me say things I don't wanna say.
     E B 
And even though I wanna break away I can't 

stop saying I adore him.
 G#m7 
Can't stop doing things for him.
 E F# G#m7 
He's got the power..the power of love, over me.
  G#m7 
(Me, me, me, me, me...)

#2.
 G#m7 
He makes me stay When I don't wanna stay.

He makes me go when I don't wanna go.
     E 
And though I try to break the spell
                                B 
I know I can't stop  saying I adore him.
 G#m7 
Can't stop doing things for him.
 E F# G#m7 
He's got the power..the power of love over me.
  G#m7 
(Can't stop, can't stop, can't stop.)

BRIDGE:
 E F# B 
Can't stop the way I need him..it's got me crazy 
        G# 
as can be.
 C#m Bbm 
Oh, but I love him..he's got a certain something
 Bb Ebm F# 
and that's the one thing that has got a hold on me.
   F# 
(Yeah, yeah, yeah, yeah.)

#3.
 G#m7 
He makes me do things I don't wanna do.

He makes me say things I don't wanna say.
     E B 
And even though I wanna break away I can't 
              
stop saying I adore him.
 G#m7 
Can't stop doing things for him.
 E F# G#m7 
He's got the power..the power of love, over me.
  G#m7 
(Can't stop, can't stop, can't stop)

INTERLUDE:
 E Bb             
La-la-la-la-la-la-la-la-la-la-la-la...oh, but I love him..
 Ebm F#                                                      
la-la-la-la-la-la-la-la-la-la-la-la-la..yeah, yeah, yeah, yeah.

#4.
 G#m7 
He makes me do things I don't wanna do.

He makes me say things I don't wanna say.
     E B 
And even though I wanna break away I can't 
              
stop saying I adore him.
 G#m7 
Can't stop doing things for him.
 E F# G#m7 
He's got the power..the power of love, over me.
  G#m7 
(Can't stop, can't stop, can't stop)


OUTRO:
 B G#m7 B G#m7   
Can't stop..oh, no....can't stop..oh, no..(x2)(Fade.)


A sixties smash from Kraziekhat.

The Power Of Love chords – Gabrielle Aplin V2

 No Capo!!
Intro:  Bm Bm G Bm G 
Aye... hmmm...

Verse 1:
 Bm 
Dreams are like angels
      G 
They keep bad at bay
 F#m 
Love is the light
         G A Bm 
Scaring darkness away
           G 
I'm so in love with you
 F#m G A 
Make love your goal

Chorus:
 Bm G 
The power of love
               F#m 
A force from above
              G 
Cleaning my soul
 A G 
Flame on burn desire
                       F#m 
Love with tongues of fire
        
Purge the soul
 G A Bm 
Make love your goal...

Verse 2:
 Bm G 
I'll protect you from the hooded claw
                              F#m 
Keep the vampires from your door
                                   G 
When the chips are down I'll be around
          A Bm 
With my undying death defying love for you
 G 
Envy will hurt itself
 D 
Let yourself be beautiful
 G A Bm 
Sparkling light, flowers and pearls and pretty girls
                    G 
Love is like an energy
                       F#m G A 
Rushing in, rushing inside of me, hmmm...

Chorus:
 Bm G 
The power of love
               F#m 
A force from above
               G 
Cleaning my soul
  A G 
Flame on burn desire
                      F#m 
Love with tongues of fire

Purge the soul
 G A Bm 
Make love your goal

Bridge:
 Bm 
This time we go sublime
 G 
Lovers entwined divine divine
 F#m 
Love is danger, love is pleasure
 G A Bm 
Love is pure, the only treasure
           G 
I'm so in love with you
 F#m G A 
Make love your goal

Chorus:
 Bm G 
The power of love
               F#m 
A force from above
             G  
Cleaning my soul
 A G 
The power of love
              F#m 
A force from above
                G 
A sky scraping dove
 A G 
Flame on burn desire
                      F#m 
Love with tongues of fire

Purge the soul
 G A Bm A Bm G 
Make love your goal
               Bm 
Make love your goal

Shawn Coleman – Power Ballad chords

 SONG:   POWER BALLAD
ARTIST: SHAWN COLEMAN (SQUIDBILLIES)
TAB BY: DON CZARSKI
EMAIL:  GUITARZAN7@HOTMAIL.COM

                     POWER BALLAD
              SHAWN COLEMAN (SQUIDBILLIES)

INTRO:   Em D Em D Em 

VERSE:
 Em D 
  I stare in to space 
 Em D C D 
  When will that time and place arrive 
    Em 
I know you're out there girl 
 D          
 I just haven't found you 
 Em D C D 
  Where is the one true love for me? 
 C D C 
 I'm crying in the rain but my tears can't hide the pain 
                       D G 
I'm lost without you girl I wish I only knew your name 


CHORUS:
                       D Bm 
Another night on the road another sold out show. 
               C G 
I'm so lonely    then I just want to explode 
                                D C 
And when the stage lights go down after the last encore 
                                 D Em D 
I hope you are waiting in the light by the backstage door. 


VERSE:
 Em D Em D 
  Youth, Fame, Money, I got it all girl, 
                           C D 
But what I don't have is you
      C D 
I'm crying in the rain 
                              C 
But my tears can't hide the pain 
                       D G 
I'm lost without you girl I wish I only knew your name 


CHORUS:
                       D Bm 
Another night on the road another sold out show. 
               C G 
I'm so lonely    then I just want to explode 
                                D C 
And when the stage lights go down after the last encore 
                                D G D Bm C 
I hope you are waiting in the light by my backstage door. 
 

BREAK:
 Am C 
  I can't face the night alone 
                         D 
Girl I need you here beside me 
 Am C 
  And I won't waste another day 
                               D 
Without your woman brace to guide me 
                 G 
Now write meeeee! 


CHORUS:
                       D Bm 
Another night on the road another sold out show. 
               C G 
I'm so lonely    then I just want to explode 
                                D C 
And when the stage lights go down after the last encore 
                                D G D 
I hope you are waiting in the light by the backstage door. 


OUTRO:
 D 
I'll be waiting baby, 
 Bm C 
  I'm so lonely girl,
           G 
Come and love me girl, 
 D C D G Bm C 
 Wear something sexy so I know it's you.