Tag: remember

Remember chords – Passion

 Remember
(the empty grave)
Melodie Malone and Brett Younker
Passion 2016
C#m7 B/D# E 
My heart hangs on every word that You speak
B            
I need You now Lord come find me
F#m7 
Holy Spirit breathe
C#m7 B/D# 
I've been walking through deserts
I need more than Your presence
B F#m7 
I'm weak, Savior be my strength
Chorus
E     
Down in the valley
B 
When waters rise
E A B 
I'm still believing hope is alive
C#m7 B 
All through the struggle
E A 
And darkest day
B E 
I'll remember the empty grave
C#m7 B/D# 
Your touch bringing me closer
E 
Your hand healing what's broken
B F#m7 
My prayer, Father meet me here
C#m6 B/D# 
My life for all of Your glory
E 
Your grace let it surround me
B F#m7 
Let faith change the atmosphere
Chorus
E     
Down in the valley
B 
When waters rise
E A B 
I'm still believing hope is alive
C#m7 B 
All through the struggle
E A 
And darkest day
B E 
I'll remember the empty grave
A E 
Hallelujah death is done
C#m7 B 
All of hell is overcome
A E B 
Jesus You are alive
(repeat)
Chorus
E     
Down in the valley
B 
When waters rise
E A B 
I'm still believing hope is alive
C#m7 B 
All through the struggle
E A 
And darkest day
B E 
I'll remember the empty grave

End Of Me Tabs – A Day To Remember Vsion 4

 Intro-Verse (Clean Guitar)
E----------------------------------------------------------------------------------------------------
B--3-----3-------------------------------------------------------------------------------------------
G----4-2---4--2---2-2----1---2-1---1---2-1-----------------------------------------------------------
D---------------4-----4----2-----2---2-----2---------------------------------------------------------
A--2-------------------------------------------------------------------------------------------------
E-------------2----------0---------------------------------------------------------------------------(6x)
Chorus (1st Guitar)
E----------------------------------------------------------------------------------------------------
B----------------------------------------------------------------------------------------------------
G----------------------------------------------------------------------------------------------------
D--4444--4444--2222----------------------------------------------------------------------------------
A--2222--4444--2222----------------------------------------------------------------------------------
E--2222--2222--0000----------------------------------------------------------------------------------(3x)
Chorus (2nd Guitar)
E-------------------------------------------------------------------------------------------------------
B-------------------------------------------------------------------------------------------------------
G--16-16-14-14-13-14/14---------------------------------------------------------------------------------
D-------------------------------------------------------------------------------------------------------
A--14-14-12-12-11-11/12---------------------------------------------------------------------------------
E-------------------------------------------------------------------------------------------------------(3x)
Oh, You'll be the end of me...(2nd Verse) (1st guitar) Clean Guitar
E----------------------------------------------------------------------------------------------------
B--3-----3-------------------------------------------------------------------------------------------
G----4-2---4--2---2-2----1---2-1---1---2-1-----------------------------------------------------------
D---------------4-----4----2-----2---2-----2---------------------------------------------------------
A--2-------------------------------------------------------------------------------------------------
E-------------2----------0---------------------------------------------------------------------------
Solo-2nd Verse   (2nd Guitar)   (Delay)                                                              Pre Chorus
E-----------------------------------------------------------------------------------------------------
B-----------------------------------------------------------------------------------------------------
G--6/7-9-7-6-11-9-9-----------------------------------------------------------------------------------     
D-------------------11-9----------------------------------------------------------2-------------------
A---------------------------------------------------------------------------------2--------------------
E---------------------------------------------------------------------------------0--------------------(4x)
Chorus (1st Guitar)
E----------------------------------------------------------------------------------------------------
B----------------------------------------------------------------------------------------------------
G----------------------------------------------------------------------------------------------------
D--4444--4444--2222----------------------------------------------------------------------------------
A--2222--4444--2222----------------------------------------------------------------------------------
E--2222--2222--0000---------------------------------------------------------------------------

Will You Remember Me Tomorrow chords – Margaret Berger

 ORDER: I V1  C  INT V2  C B C C  O
[INTRO]
E  | | | | 
[VERSE 1]
E C#m 
Deep inside you always were my sweet - heart
E C#m 
But I never thought you taste so sweet
E 
So hold me tight and don't let go
C#m 
Till we see the sunrise
A B 
Will you remember me tomorrow?
[CHORUS]
E 
Kissing in the dark of night,
never want to say goodnight
C#m 
Ooooh, baby
E 
No one touched my heart like this
Never found a single kiss
C#m 
Ooooh baby
A B 
Will you remember me tomorrow?
[INTERLUDE]
E  | | | |
[VERSE 2]
E C#m 
There will always be a day tomor - row
E C#m 
But I really want this one to last
E 
Cause now's the time
I'm in your arms
C#m 
And I can't believe it
A B 
Will you remember me tomorrow?
[CHORUS]
E 
Kissing in the dark of night,
never want to say goodnight
C#m 
Ooooh, baby
E 
No one touched my heart like this
Never found a single kiss
C#m 
Ooooh baby
A B 
Will you remember me tomorrow?
[BRIDGE]
F#m C#m 
Time goes by
It goes by
A 
And you don't know
B 
But you should know
[CHORUS] (chill chorus)
E 
Kissing in the dark of night,
never want to say goodnight
C#m 
Ooooh, baby
(+ drums)
E 
No one touched my heart like this
Never found a single kiss
C#m 
Ooooh baby
(full band)
A B 
Will you remember me tomorrow?
[CHORUS]
E 
Kissing in the dark of night,
never want to say goodnight
C#m 
Ooooh, baby
E 
No one touched my heart like this
Never found a single kiss
C#m 
Ooooh baby
A B 
Will you remember me tomorrow?
[OUTRO]
E  | |  C#m  | |  E  | |  C#m  | |
A  | |  B  | |  E  | | | | n.c.

Remember chords – Brett Younker

 Artist: Passion (Brett Younker)
Salvation's Tide Is Rising
Song: Remember
Key: E
Intro:  E  |||  Esus4  |||  E  |||  Esus4  |||
Verse 1:
C#m B/D# E 
My heart hangs on every word that You speak
B F#m 
I need You, Lord come find me, Holy Sprit breathe
C#m B/D#   
I've been walking through deserts
E                            
I need more of Your Presence
B F#m 
I'm weak, Savior, be my strength
Chorus:
E B A B 
Down in the valley, when waters ri - se 
E B A B 
I'm still believing, hope is alive 
C#m B/D# E E/G# A    
All through the struggle and darkest day
A B E 
I'll remember the em - pty grave
Interlude: (  E  ) ||  B  -  A  ||  B  -  E  ||  B  -  A  ||  B 
Verse 2:
C#m B/D#  
Your touch bringing me closer
E                               
Your hand healing what's broken
B F#m   
My prayer, Father, meet me here
C#m B/D# 
My life for all of Your glory 
E                              
Your grace, let it surround me
B F#m  
Let faith change the atmos - phere
Chorus
Instrumental:  A  |  E  |  C#m  |  B  |  A  |  E  |  B 
Bridge:
A E 
Hallelujah, death is done 
C#m B 
All of heaven's overcome
A E B  
Jesus, You are alive
A E 
Hallelujah, death is done 
C#m B 
All of heaven's overcome
A E B E  |||  Esus4  |||
Oh my Jesus, You are alive
Chorus:
E B A B 
Down in the valley, when waters ri - se 
E B A B 
I'm still believing, hope is alive 
C#m B/D# E E/G# A    
All through the struggle and darkest day
A B E B  -  A B E B  -  A        
I'll remember the em - pty grave,    the em - pty grave
B C#m B/D# E E/G# A B E Esus4 E Esus4 E 
I'll remem - ber, yes I'll remem - ber   the empty grave

Remember Me chords – Tracey Curtis

 Remember Me - Tracey Curtis
Intro -  A  / / /  E  / / /  D  / / /  E  / / /
A E 
Hello ... Remember me?
D 
I wrote letter after letter
E 
In the hope you'd make things better
A E 
For us here in my country
D 
It was far from perfect
E 
But war is never worth it
D 
Remember me
E F#m 
When you're safe at home in the day
At work
A 
At play
D 
Remember me
E F#m 
When you're safe and sound in the night
A 
When you wake from dreams that haunt you
D E 
Though you're sure you got it right
F#m  / / /  F#m  / / /
Remember me
A E 
Hello ... Remember me?
D 
I've seen people dead and dying
E 
And though I'm really trying
A E 
To forget I'm scared to go to sleep
D 
And I pray to make things better
E 
When you get this letter
D 
Remember me
E F#m 
When you're safe at home in the day
At work
A 
At play
D 
Remember me
E F#m 
When you're safe and sound in the night
A 
When you wake from dreams that haunt you
D E 
Though you're sure you got it right
D Dm 
You told your people that the war was over
A                                                 
You told them that the war was won
D Dm 
If they can't see us then they'll soon forget us
F#m 
But we're still here
Amaj7 D E 
Why can't you admit you got it wrong?
D 
Remember me
E F#m 
When you're safe at home in the day
At work
A 
At play
D 
Remember me
E F#m 
When you're safe and sound in the night
A 
When you wake from dreams that haunt you
D E 
Though you're sure you got it right
D E 
Are you sure you got it right?
F#m 
Remember me
C#m 
Remember me
A 
Remember me

I Remember You chords – Glen Campbell

 I Remember You
Glen Campbell
album Still Within The Sound Of My Voice
Intro  A E7 E A E7 E 
Verse 1
A Ab 
I remember you,
A A7 
You're the one who said
D 
I Love you true 
Dm A E7 E 
a few kisses ago
Verse 2
A Ab 
I remember you,
A A7 
You're the one who said
D Dm 
"I love you, too," yes I do.
A A7 
and Didn't you know?
Chorus 1
D Db 
and I remember, too,
F# Db 
A distant bell,
F# 
And stars that fell 
B E E7   
like the rain Out of the blue.
Verse 3
A Ab 
When my life is through,
A A7 D 
And the angels ask me to recall
Dm A 
The thrill of them all,
Then I will tell them
Bm E 
I remember 
C Dm G 
tell them I remember 
Bb A 
tell them I remember you
riff   Ab A A7 D Dm A E A Ab A A7 D Dm A A7   
Chorus 2 
D Db 
and I remember, too,
F# Db 
A distant bell,
F# 
And stars that fell 
B E E7 
like the rain Out of the blue.
Verse 4
A Ab 
When my life is through,
A A7 D 
And the angels ask me to recall
Dm A 
The thrill of them all,
Then I will tell them
Bm E 
I remember 
C Dm G 
tell them I remember
Outro
Bb A E7 E A E7 E A 
tell them I remember you
flyinglibra51
God Bless Glen Travis Campbell

Ill Remember Tonight chords – The Roulettes

       The Roulettes 1965
From the Stakes and Chips album
I'll Remember Tonight
Intro:  D G D G A D G 
Here we stand hand in hand, watching the stars shiiiiine
G Bm A 
Watching the stars shiiiiine, I'll remember to-niiiiight
D G 
And I do understand, tonight, you are mine mine, tonight
G Bm A      
You are mine mine, I'll remember to-niiiiight
Bb Eb              Eb//
How long I've waited for a night like this
Bb Eb A 
Come to me, I want to kiss you, nowwwww, nowwwww
D G 
You're holding me in your arms, saying you lovvvvve meeee
G Bm A    
Saying you lovvvvve meeee, I'll remember to-niiiiight
Solo
Bb Eb              Eb//
How long I've waited for a night like this
Bb Eb A 
Come to me, I want to kiss you, nowwwww, nowwwww
D G 
You're holding me in your arms, saying you lovvvvve meeee
G Bm A    
Saying you lovvvvve meeee, I'll remember to-niiiiight
Outro:  D G D G Bb D 
End on cold D

Remember chords – Sarah Draget

 http://www.sarahdraget.com/
Sarah Draget - Remember 
(It's my first Tab, Corrections are welcome =)
G 
In ancient times
Em 
God built a monument
C G D 
At the dawn of creation
G 
He hallowed and blessed
Em 
Those moments of rest
C D 
That day of complete veneration
Em 
That pillar He made
C 
Not of stone, but of time
G 
The hours were sacred
D 
The idea divine
G 
And the morning stars sang
Em 
For joy they did shine
C D G 
And shout, that first week of creation
G 
And lest they forget
Em 
He made angels’ food fall
C G D 
Down from the sky, on all days but one
G     
And He wrote it down
Em 
For the sake of us all
C D 
Among the ten rules on the stone
Em 
Those rules about murder
C    
And stealing, and lying
D D       
Engraving with blazing finger, defying
G Em 
Whoever in heaven or hell should endeavor
C D G 
To change the commandments He wrote
D G C 
Here is the patience of the saints
G D   
Here are those who keep
Em C  
The commandments of God
C D C 
And the faith of Jesus
G         
Then came God’s own Son
Em 
To show us the way
C G D 
He hallowed that same Sabbath day
G     
The pure Lamb of God
Em 
As our soil He trod
C D 
In God’s perfect will He did stay
Em         
‘Til heaven and earth
C 
Shall indeed pass away
G 
Not one dot or one dash
D 
Will be changed, He did say
G 
The apostles of old
Em 
Kept and honored, we’re told
C D G 
That same law that their Master obeyed
G 
For three hundred years
Em 
After our Savior died
C G D 
And arose from the grave and ascended on high
G 
The Christians respected
Em 
The law in the stone
C D 
The one written with finger divine
Em      
But then came the day
C          
Constantine was his name
D 
The emperor who over Rome did reign
G 
Tore down the old landmark
Em 
The pillar of God
C D G 
And erected the day of the sun
D G C 
Here is the patience of the saints
G D   
Here are those who keep
Em C  
The commandments of God
C D C 
And the faith of Jesus
G 
As millennia passed
Em C 
The memory of God’s pillar of time
G D 
Was slowly erased
G Em 
By the ceaseless waves of generations
C D 
Of human traditions and days
Em 
But God calls His people
C 
Out from among them
G 
To point to His word

Remember When chords – Dimension

 Intro :  Am ,  F ,  G F G 
When the night holds us too tight 
Am C       
It feels like falling to the deepest fear
F G Am C 
No one helps me reach out to the sky 
F G 
We're breaking to pieces 
Am C 
And there's no way to give it up 
F G Am C 
Beating 'em all who wants against us 
Bridge :
F 
We will rise 
G 
We will fight until the end 
Em Am 
And we'll never let them tear us apart 
Chorus :
F G 
Remember when you fall into the ground 
Am C 
You just have to believe 
F G 
All of the darkness makes you wanna stop
Am C 
You just have to resist 
F G 
This pain is just distraction 
Em 
Can't hold our satisfaction 
F G Em 
It's time to relive our glory 
Interlude :  Am ,  F ,  G F G 
We're breaking to pieces 
Am C 
And there's no way to give it up 
F G Am 
Beating 'em all who wants against us 
Chorus :
F G 
Remember when you fall into the ground 
Am C 
You just have to believe 
F G 
All of the darkness makes you wanna stop
Am C 
You just have to resist 
F G 
This pain is just distraction 
Am Em 
Can't hold our satisfaction 
F G 
It's time to relive oh
F G 
Remember when you fall into the ground 
Am C 
You just have to believe 
F G 
All of the darkness makes you wanna stop
Am C 
You just have to resist 
F G 
This pain is just distraction 
Em 
Can't hold our satisfaction 
F G Em 
It's time to relive our glory  
Outro :  Am ,  F ,  G

End Of Me chords – A Day To Remember V3

 I wanted the ability to play this song live in the recorded key without having to drop the entire guitar one
full step. Drop D tuning allows the intro to be played along with the chords. Enjoy and let me know what you
think!! 
TUNING: Drop D
CAPO: 2nd fret
CHORDS (relative to capo):
Am   - x02210
Em   - 222000
D    - 000232
G    - x55433
E|--------------------------------------------------------------------| 
B|-1---------1--------------------------------------------------------| 
G|---2---0-----2----0-----0---0---------------------------------------| 
D|--------------------2---------2----4-----5---4-----4-----5---4------| 
A|-0---0---0-----0---------------------5---------5-----5---------5----| 
D|------------------2---2---2-----2--0---0---0-----0-0---0---0-----0--|
Am  –  Em  –  D 
I took some time away for understanding of what brought us here today
Oh, you'll be the end of me
I'm never happy like we were happy, I'm never sad like we were sad
Oh, you'll be the end of me
Am  –  Em  –  D 
You know me all too well, and I can't suppress the memories
You're gone and I can tell that I've lost more than you'll ever see
Don't say that it's not fair that you're not the person you wanna be
'Cause oh, you'll be the end of me
Am  –  Em  –  D 
I know I wasn't perfect, but I kept trying till I forgot why I stayed
Oh, you'll be the end of me
Yeah we lost all meaning, we lost the magic, so good luck to you on your way
Oh, you'll be the end of me
Am  –  Em  –  D 
You know me all too well, and I can't suppress the memories
You're gone and I can tell that I've lost more than you'll ever see
Don't say that it's not fair that you're not the person you wanna be
'Cause oh, you'll be the end of me
Am  –  Em  –  G  –  D  (2x)
Am  –  Em  –  G  –  D  
I get it, no, I get it- gave more than I took back (took back, oh well)
I get it, no, I get it- can't help those who don't wanna be helped
Am  –  Em  –  D 
You know me all too well, and I can't suppress the memories
You're gone and I can tell that I've lost more than you'll ever see
Don't say that it's not fair that you're not the person you wanna be
'Cause oh, you'll be the end of me (you'll be the end of me)
Am  –  Em  –  G  –  D  (2x)
End

Good Things intro Tabs – A Day To Remember

 -------------------------------------------------------------------------------
Good Things - A Day To Remember
-------------------------------------------------------------------------------
: Hewitt
hewitt_pd
Tuning: C
D|-x-x-----x-x-----x-x-x-x---------------------------------------------------------------------|
A|-x-x-----x-x-----x-x-x-x---------------------------------------------------------------------|
F|-x-x-----x-x-----x-x-x-x---------------------------------------------------------------------|
C|-x-x-6-6-x-x-8-8-x-x-x-x-5-----6-----10-----8------------------------------------------------|
G|-x-x-6-6-x-x-8-8-x-x-x-x-5-x16-6-x16-10-x16-8-x16--------------------------------------------|
C|-x-x-6-6-x-x-8-8-x-x-x-x-5-----6-----10-----8------------------------------------------------|
I'll post more as I figure the rest of the lead/rhythm out, no body posted anything on this tab so if there
are changes, or a better version email me.
************
| /   slide up
| \   slide down
| h   hammer-on
| p   pull-off
| ~   vibrato
| +   harmonic
| x   Mute note
| b   Bend
| pb  Pre-bend
| br  Bend release
| pbr Pre-bend release
| brb Bend release bend
************************************

Remember Me chords – Raymond Och Maria

 A ,  D ,  A ,  E  x1 intro
A ,  D ,  A ,  E  x4
You wore glasses, you were tall
You left your jacket in my hall
It smelled of life, it smelled of truth
And it was time to give up youth
Remember me darling
And please remember me now
A ,  D ,  A ,  E  x4
It was in late 2008
And it was not much of a date
You said you forgot my name
But I was lost there just the same
Remember me darling
And please remember me now
A ,  D ,  A ,  E  x4
You taught me how to play guitar
I taught you how to drive a car
The things you said were not all true
But more important they were new
Remember me darling
And please remember me now
A ,  D ,  A ,  E  x4
You wore glasses, you were tall
You left your jacket in my hall
It smelled of life, it smelled of truth
And it was time to give up youth
Remember me darling
And I'll remember you now
A ,  D ,  A ,  E  x4
It was in late 2008
And it was not much of a date
You said you forgot my name
But I was lost there just the same
Remember me darling
And please remember me now
A ,  D ,  A ,  E  x4
We used to walk the streets at night
Looking for life, looking for light
And I remember that you said
That all your light was in my head
Remember me darling
And I'll remember you still
A ,  D ,  A ,  E  x4
We used to walk the streets at night
Looking for life, looking for light
And I remember that you said
That all your light was in my head
Remember me darling
And please remember me still
A ,  D ,  A ,  E  x4
You wore glasses, you were tall
You left your jacket in my hall
It smelled of life, it smelled of truth
And it was time to give up youth
Oh remember me darling
And please remember me now
A ,  D ,  A ,  E  x4
You wore glasses, you were tall
You left your jacket in my hall
It smelled of life, it smelled of truth
And it was time to give up youth
Oh remember me darling
And please remember me now

Remember chords – Disturbed

 (Intro and Verse)           Am  /  Am7  back and forth
(Chorus and Bridge)         F Am C Am F Am G E 
(Solo part)                 Am  /  Am7  back and forth
Sensation washes over me, I can't describe it
Pain I felt so long ago, I don't remember
Tear a hole, so I can see my devastation
Feelings from so long ago, I don't remember
Holding on to let them know
What's given to me, given to me
To hide behind my mask this time
And try to believe
Blind your eyes to what you see, you can't embrace it
Leave it well enough alone and don't remember
Cut your pride and watch it bleed, you can't deny it
Pain you know you can't ignore, I don't remember
Holding on to let them know
What's given to me, given to me
To hide behind my mask this time
And try to believe
And I can remember to know this will conquer me
And I can just walk alone and try to escape into me
Sensation washes over me, I can't describe it
Pain I felt so long ago, I don't remember
I'm just holding on to let them know
What's given to me, given to me
To hide behind my mask this time
And try to believe
If I can remember, to know this will conquer me
If I can just walk alone and try to escape into me
Into me
Into me

Cant Remember To Forget You chords – Shakira V3

 Hi! this is my first tab, I hope you enjoy it . :)
Intro:
Bm G A D 
Verse 1 [Shakira]:
Bm G A  
I left a note on my bedpost
D A 
Said not to repeat yesterday's mistakes
Bm G A 
What I tend to do when it comes to you
D A 
I see only the good, selective memory
Bm G A  
The way he makes me feel yeah, gotta hold on me
D A 
I've never met someone so different
Oh here we go
Bm G A  
He a part of me now, he a part of me
D A G A 
So where you go I follow, follow, follow
Chorus:
Bm A G  
Ohohohoh ohohohoh
D A 
I can't remember to forget you
Bm A G  
Ohohohoh ohohohoh
D A 
I keep forgetting I should let you go
Bm A G  
But when you look at me, the only memory, 
D A 
is us kissing in the moonlight
Bm A G  
Ohohohoh ohohohoh
D A 
I can't remember to forget you
Bm A G  
Ooooooooooh
D A 
I can't remember to forget you
Verse 2 [Rihanna]: 
Bm G A  
I go back again fall off the train
D A 
Land in his bed repeat yesterday's mistakes
Bm G A  
What I'm trying to say is not to forget
D A 
You see only the good, selective memory
Bm G A  
The way he makes me feel like the way he makes me feel
D A 
I never seemed to act so stupid
Oh here we go
Bm G A   
He a part of me now, he a part of me
[Shakira]
D A G A   
So where he goes I follow, follow, follow, oh
Chorus:
Bm A G  
Ohohohoh ohohohoh
D A 
I can't remember to forget you
Bm A G  
Ohohohoh ohohohoh
D A 
I keep forgetting I should let you go
Bm A G  
But when you look at me, the only memory, 
D A 
is us kissing in the moonlight
Bm A G  
Ohohohoh ohohohoh
D A 
I can't remember to forget you
Bridge [Shakira]:
Bm G    
I rob and I kill to keep him with me
A D A   
I do anything for that boy
Bm G 
I'd give my last dime to hold him tonight
A D A 
I do anything for that boy
Bridge [Rihanna]:
Bm G    
I rob and I kill to keep him with me
A D A   
I do anything for that boy
Bm G 
I'd give my last dime to hold him tonight
A D A 
I do anything for that boy
Chorus:
Bm A G  
Ohohohoh ohohohoh
D A 
I can't remember to forget you
Bm A G  
Ohoh

Cant Remember To Forget You Tabs by Shakira

 Shakira - Can't Remember To Forget You
: sickparamour
Tuning: standard
Verse (0:06)
e|--------------------------------------------|
B|---x3x3x3x3----------------------x7x7-------|
G|---x4x4x4x4--x4x4x4x4--x6x6x6x6--x7x7x6x6---|
D|---x4x4x4x4--x5x5x5x5--x7x7x7x7--x7x7x7x7---|   (x4)
A|---x2x2x2x2--x5x5x5x5--x7x7x7x7--x5x5x7x7---|
E|-------------x3x3x3x3--x5x5x5x5------x5x5---|
^v^v^v^v  ^v^v^v^v  ^v^v^v^v  ^v^v^v^v
Chorus (0:34)
e|--------------------------------------------|
B|--------------------------------------------|
G|---44444444----------------------7777-------|
D|---44444444--77777777--55555555--77777777---|   (x4)
A|---22222222--77777777--55555555--55557777---|
E|-------------55555555--33333333------5555---|
| x   mute note
| v   up storke
| ^   down storke

We Can Remember New Years Eve chords – Eric Hutchinson

 (We Can Remember) New Year’s Eve  by: Eric Hutchinson
Chords by Mike Miller
Intro  (and in between verses)
Bb Gm Bb Gm 
Verse 1
Bb Gm 
funny how time slips away
Cm           Gm11          F11 
one more year gone by
Bb Gm 
and our stories will convey
Cm           Gm11          F11 
how our tears ran dry
Bb               Dm11         Gm Gm7 
things won’t be like before
Eb Eb7 F 
but i’m pretty sure
Bb Bb/F# Gm 
spirits will endure
Cm F Bb 
and we can remember new year’s eve
Verse 2
take your eye off of the clock
you can hold time still
opportunity will knock
leaving you fulfilled
as an old year turns
think of what we’ve learned
hope and promise burned
and we can remember new year’s eve
Bridge
Cm F 
people get bent out of shape
Bb                    Dm11           Gm 
and searching out of plans they made for one big night
Cm F 
time’s a man made measure of business and pleasure
D Gm   
and it starts to take over our lives
Eb 
and we let it
Eb /  F 
oh we can’t forget
Verse 3
when we look back on these days
we will find some truth
in the year that patiently
celebrated youth
save the season for your friends
smiles will transcend
this is not the end
and we can remember new year’s eve

Remember Everything Acoustic Tabs by Five Finger Death Punch

 Author/Artist: Five Finger Death Punch
Title: Remember Everything
Live Acoustic
: Robert Brown
Email: bahburt
Tuning: (from low to high)  A E A D F# B
This is the acoustic version they play live.
Transcribed to the best of my abilities. Hope you enjoy it!
Intro
-|--------------------|---------------------|-----------------|--------------|
-|--------------------|---------------------|-----------------|--------------|
-|--------------------|---------------------|-----------------|--------------|
-|--------11-9--------|--------11-9---------|-----4-7-6-----4-|--------------|
-|---9-12------11---9-|---9-12------11-12-9-|---4-------7-----|--------------|
-|-0--------------0---|-0-------------------|-4-----------4---|--------------|
-|-------------------|--------------------|---------------------|------------|
-|-------------------|--------------------|---------------------|------------|
-|-------------------|--------------------|---------------------|------------|
-|-----4-7-6-------7-|--------11-9--------|--------11-9---------|------------|
-|---4-------7-------|---9-12------11---9-|---9-12------11-12-9-|------------|
-|-4-----------4\7---|-0--------------0---|-0-------------------|------------|
-|-------------------0------------------|------------------------------------|
-|-------------------0------------------|------------------------------------|
-|-------------------4------------------|------------------------------------|
-|-----4-7-6---4-----4------------------|------------------------------------|
-|---4-------7------------4/------------|------------------------------------|
-|-4-------------4--------4/------------|------------------------------------|
Verse
-|--------------------|---------------------|-----------------|--------------|
-|--------------------|---------------------|-----------------|--------------|
-|--------------------|---------------------|-----------------|--------------|
-|--------11-9--------|--------11-9---------|-----4-7-6-----4-|--------------|
-|---9-12------11---9-|---9-12------11-12-9-|---4-------7-----|--------------|
-|-0--------------0---|-0-------------------|-4-----------4---|--------------|
-|-------------------|--------------------|---------------------|------------|
-|-------------------|--------------------|---------------------|------------|
-|-------------------|--------------------|---------------------|------------|
-|-----4-7-6-------7-|--------11-9--------|--------11-9---------|------------|
-|---4-------7-------|---9-12------11---9-|---9-12------11-12-9-|------------|
-|-4-----------4\7---|-0--------------0---|-0-------------------|------------|
-|-----------------|----------------------|--------------------|-------------|
-|-----------------|----------------------|--------------------|-------------|
-|-----------------|----------------------|--------------------|-------------|
-|-----4-7-6-----4-|-------7-11-9---------|-12---11---9--------|-------------|
-|---4-------7-----|-----7--------11-12-9-|---------------12---|-------------|
-|-4-----------4---|-4\7------------------|----9----9---9----9-|-------------|
-|-----------------|-----------------|-----------------|---------------------|
-|-----------------|-------0---------|-------5-------9-|---------------------|
-|-6---6---4-------|-----2---2---2---|-----6-------9---|---------------------|
-|-------------7---|---2-----------2-|---6-------9-----|---------------------|
-|-----------------|-0---------0-----|-4-------7-------|---------------------|
-|---4---4---4---4-|-----------------|-----------------|---------------------|
Chorus
-|---------------|---------------|-------------------------------|-----------|
-|-------0-------|---------------|-------3-------------7-------9-|-----------|
-|-----2---2-----|-------1-------|-----4---4---------7-------9---|-----------|
-|---2---------2-|-----2---2---

Try To Remember Forget Acoustic chords – Say Anything

 This is the acoustic version of Try To Remeber, Forget from the 7" split with Eisley.
I haven't shown any strumming patterns, but you can hear the song here to figure it out 

Intro
|-------------------------------|
|-------------------------------|
|-------------------------------|
|---------9-6~----------9~------|
|--7/9/7--7-7~---7/9/7--7~------|
|-----------------------5~------| X2
Verse
|----------------|
|----------------|
|-9--9---6-------|
|-9--9---7-------|
|-7--6---7-------|
|--------5-------|
Chorus
|-----------|-------------------|
|-----------|-------------------|
|-9--8--8---|-------------------|
|-7--9--9---|-9~----9--9--------|
|-9--x--x---|-7~----7--6--------|
|----9--7---|-5~----5--7--------|
x3
Interlude
|---------------|
|---------------|
|---------------|
|-9--9----------|
|-7--6----------|
|-5--7----------|
Outro
|---------------|
|---------------|
|---------------|
|--------9-6~---|
|-7/9/7--7-7~---|
|---------------|
Order:
Intro
verse x2
chorus
verse X4
Chorus
Interlude x6
verse x2
chorus
Outro
NOTE: Bemis is strumming the B and e strings open during most of the song, I didn't note
that because it looked messy, but here's a head's up

End Of Me chords – A Day To Remember V2

 Adjusted the Chords from another Version to Standard Tuning
[Intro]
H F# E E  [2x]
[Verse]
H F# 
I took some time away
E 
For understanding
E H 
Of what brought us here today
F# E E 
Oh-oh, you'll be the end of me
H F# E 
I'm never happy like we were happy
E H 
I'm never sad like we were sad
F# E          
Oh-oh, you'll be the end of me
[Chorus]
E H 
You know me all too well
F# E 
And I can't suppress the memories
E H 
You're gone and I can tell
F# E 
That I've lost more than you'll ever see
E H 
Don't say that it's not fair
F# E E 
That you're not the person you wanna be
H F# E E 
Oh-oh, you'll be the end of me
[Interlude]
H F# E E  [2x]
[Verse]
H F# 
I know I wasn't perfect,
E  
But I kept trying 
E H 
‘Till I forgot why I stayed
F# E E 
Oh-oh, you'll be the end of me 
H F# 
Yeah, we lost all meaning
E 
We lost the magic
E                   
So good luck to you on your way
H F# E 
Oh-oh, you'll be the end of me
[Chorus]
E H 
You know me all too well
F# E 
And I can't suppress the memories
E H 
You're gone and I can tell
F# E 
That I've lost more than you'll ever see
E H 
Don't say that it's not fair
F# E E 
That you're not the person you wanna be
H F# E 
Oh-oh, you'll be the end of me
E 
You'll be the end of me
[Interlude]
H F# A E H F# A E H F# 
I get it now, I get it
A E 
Gave more than I took back, oh well (so back away!)
H F# 
I get it now, I get it
A E 
Can't help those who don't wanna be helped
[Chorus]
H 
You know me all too well 
F# E 
And I can't suppress the memories
E H 
You're gone and I can tell
F# E 
That I've lost more than you'll ever see
E H 
Don't say that it's not fair
F# E E 
That you're not the person you wanna be
H F# E 
Oh-oh, you'll be the end of me
E 
You'll be the end of me
[Outro]
H F# A E H F# A E

I Remember Me chords – Silver Jews

 C F C 
He almost walked into a wall
C F C 
Oh, man, she was a sight to see
C Am F 
And at the party down the hall
C F C 
He said, "you are the highest apple in the tree"
C F C 
Out the window, in the harbor he saw a little ship
C F C    
The moon was worn just slightly on the right
C Am F    
And they slow danced so the needle wouldn't skip
C F C                 
Until the room was filled with light
F                   
And I remember you
C  
And I remember me
E       
The sunshine walking inside you 
Am 
And the man you could see in me
F 
So I remember me 
C 
And I remember you
E 
So many beautiful days in a row now
Am 
And the nights were perfect, too
C F C 
Hand in hand down a waterslide in Chattanooga
C F C 
They did not hide from love, you see
C Am F 
A winter's plane flight to Aruba
C F C 
Where he threw a boombox into the sea
C F C 
One day they were cutting flowers for something to do
C F C            
On the bank of the road 'neath the cotton woods
C Am F  
And he turned to her to ask if she'd marry him
C F C 
When a runaway truck hit him where he stood
F 
So I remember you
C 
And I remember you
F 
And I remember you
C 
And I remember me
F 
And I remember me
E 
A blackhawk nailed to the sky
Am 
And the tape is from the trees
C F C 
Everybody said she needed to move on
C F C 
That he was all but lost, so deep was his coma
C Am F 
When he finally came to the girl he loved was long gone
C F C              
She'd married a banker and gone to Oklahoma
C F C 
He bought a little land with the money from the settlement
C F C 
And even bought the truck that had hit him that day 
C Am F          
He touched the part where the metal was bent
C F C    
And if you were there you wouldn't hear him say
F 
I remember her
C 
And I remember him
F 
I remember them
C 
I remember then
F  
I'm just remembering
C 
I'm just remembering
F 
Just remembering
C 
I'm just remembering