Tag: rest

Rest Your Love chords – The Vamps V3

 Standard Tuning
No capo

Verse 1: 

(Am G C)x4

 Am G C 
I see you move, and I do understand 
 Am G C 
Why you get attention
 Am G C 
And I hear you talk, but I don't comprehend 
 Am G C 
Why I get no mention


Pre-Chorus:

         Am G C 
And you know, you know where to find me
          Am G C 
Yeah you know where to go when you're looking for love
         Am G C    
And you know, you know where I'm hiding
          Am G C           
Yeah you know,    Yeah you know


Chorus:

          Am  *            F  *                       C  *
When the stars go out, you can rest your love on me
              Am  *                   F  *                        C  *
And when the world gets loud, baby you can rest your love on me
          Am F C C       
When the stars go out, you can rest your love on me (yeah you can rest your love on me)
              Am F C C 
And when the world gets loud, baby you can rest your love on me (yeah you can rest your love on me)


Verse 2:

 Am G C Am G C 
I used to try to get into your space
 Am G C 
Then I learnt my lesson
 Am G C 
I saw the time as it turned into days
 Am C G 
You need some rejection


Pre-Chorus:

         Am G C 
And you know, you know where to find me
          Am G C 
Yeah you know where to go when you're looking for love
         Am G C    
And you know, you know where I'm hiding
          Am G C           
Yeah you know,    Yeah you know


Chorus:

          Am  *            F  *                       C  *
When the stars go out, you can rest your love on me
              Am  *                   F  *                        C  *
And when the world gets loud, baby you can rest your love on me
          Am F C C       
When the stars go out, you can rest your love on me (yeah you can rest your love on me)
              Am F C C 
And when the world gets loud, baby you can rest your love on me (yeah you can rest your love on me)


 Am F C 
Oh oh oh oh oh oh oh oh oh oh oh oh oh oh (yeah you can rest your love on me)
 Am F C 
Oh oh oh oh oh oh oh oh oh oh oh oh oh oh (yeah you can rest your love on me)


Bridge:

         Am G C 
And you know, you know where to find me
          Am G C 
Yeah you know where to go when you're looking for love
         Am G C    
And you know, you know where I'm hiding
          Am G C           
Yeah you know,    Yeah you know

               Am  *            F  *                       C  *
That when the stars go out, you can rest your love on me


Chorus: 

         Am F C C       
When the stars go out, you can rest your love on me (yeah you can rest your love on me)
              Am F <spa

Rest To Get Better chords – Transit

 Transit
Rest To Get Better
Joyride
2014 Rise Records
Submitted by: jeremyunderground41

Key: Bb

Tuning: Standard EADGBe

Chords used:
 Bb  - x13331
 F  -  133211
 Gm  - 355333
 Eb  - x68886


Intro: Bb--


Verse 1:
            Eb 
I haven't slept in forever
   Bb 
only rest to get better
     F 
I'm up every three hours
    Gm Bb Eb 
or so   With the same awful
               Bb 
thoughts that keep me
                 F 
in my place Too tired
               Gm 
to act out or make
          Bb 
sense of my days


Chorus 1:
 Eb 
Maybe Maybe
 Bb 
I'll find peace
 F Gm 
Maybe Maybe between
     Bb 
the cold sheets
 Eb 
Maybe Maybe that's
 Bb F 
all I need Maybe
            Gm 
Maybe I'll get
       Bb 
some sleep


Verse 2:
            Eb 
I haven't slept in forever
   Bb 
only rest to get better
     F 
And dream up all the
           Gm Bb 
ways to escape  And when
 Eb Bb 
I'm wide awake the world
seems to move slowly
     F 
Like long goodbyes from 
 Gm Bb         Eb--
the lonely sound of alarms


Verse 3:
     Eb 
You think you get honest
     Bb 
you only get meaner
     F 
You think it gets better
     Gm Bb 
you only break cleaner
   Eb 
Admit you're a liar
   Bb 
admit that you need her
     F 
You think it gets better
     Gm Bb 
you only break cleaner


(Repeat Chorus 1)


Verse 4:
            Eb 
I haven't slept in forever
   Bb 
only rest to get better
     F 
And dream up all the
           Gm Bb 
ways to escape  And when
 Eb Bb 
I'm wide awake the world
seems to move slowly
     F 
Like long goodbyes from 
 Gm Bb Eb 
the lonely sound of alarms
 Bb 
I tried everything
 F 
  Long goodbyes from
 Gm Bb Eb 
the lonely sound of alarms
     Bb 
You don't remember me
           F 
And we'll never escape
      Gm Bb 
from the lonely sound
     Eb Bb 
of alarms   I will
 F Gm Bb 
never escape


Chorus 2:
 Eb 
Maybe Maybe it
         Bb 
was the summer of
    F 
03 Maybe Maybe we
      Gm Bb 
were 17 and 16
 Eb 
Maybe Maybe you
 Bb 
don't remember me
 F 
maybe maybe you
 Gm Bb 
don't remember me
 Eb 
  Wide awake the
 Bb 
world moves slowly
   F 
I will never escape
      Gm 
from the lonely


Outro:
            Eb 
I haven't slept in forever
   Bb 
only rest to get better
     F 
And dream up all the
           Gm Bb 
ways to escape  And when
 Eb Bb 
I'm wide awake the world
seems to move slowly
     F 
Like long goodbyes from 
 Gm Bb Eb 
the lonely sound of alarms
 Bb 
I tried everything
 F 
  Long goodbyes from
 Gm Bb Eb 
the lonely sound of alarms
     Bb 
You don't remember me
           F 
And we'll never escape
      Gm Bb 
from the lonely sound
     Eb Bb 
of ala

He Has Come For Us God Rest Ye Merry Gentlemen chords – Meredith Andrews

 Verse I:
     Am Am 
God rest ye merry gentlemen let nothing you dismay
   Am Am       
Remember Christ our Savior was born on Christmas day
    Dm C Am G 
To save us all from Satan's power when we were gone astray
    C Dm Am G 
Oh tidings of comfort and joy, comfort and joy
    C Dm Am 
Oh tidings of comfort and joy


Chorus:
        F C G 
He has come for us, this Jesus
          F C G 
He's the hope for all mankind
        F C G 
He has come for us, the Messiah
 F G C 
Born to give us life


Verse II:
      Am 
From God our heavenly Father a blessed angel came
     Am 
And unto certain shepherds brought tidings of the same
     Dm C Am G 
How that in Bethleham was born the Son of God by name
    C Dm Am G 
Oh tidings of comfort and joy, comfort and joy
    C Dm Am 
Oh tidings of comfort and joy


Chorus:


Bridge:
         F G Am C F G Am C  
All the angels sing Halleluja, Jesus Christ is born
         F G Am C F G Am C 
All the children sing Halleluja, He is Christ the Lord


Chorus:
        F C G 
He has come for us, this Jesus
          F C G 
He's the hope for all mankind
        F C G 
He has come for us, the Messiah
 F G Am F G C 
Born to give us life (He is born to give us life)

A Moments Rest chords – The Devil Makes Three

 The Devil Makes Three - A Moment's Rest

 C F C 
Lord, I got a heart full of hatred 
 C F G 
For me there sure ain't no cure 
 C F C 
I wake up and I'm running 
         G C  
I don't know what I'm running for 

 C F C 
Lord, I got a head full of worry
 C F G 
Why that is, I've never known 
 C F C 
I can go back where I came from 
     G C  
But I ain't ever going home 


 D G F C 
All this talking does not hold the answers to this life 
 D G F G 
All you get is a moment's rest from what haunts you deep inside 
                     C G Am G D G C G C Am G 
Is that good enough tonight, is that good enough tonight


 C F C 
Lord, I got eyes full of fire
 C F G 
They can burn off the rain 
 C F C 
But I gotta swim to the bottom 
         G C  
Just to keep from busting into flame


 D G F C 
Oh, that bottle does not hold the answers to this life 
 D G F G 
All you get is a moment's rest from what haunts you deep inside 
                     C G Am G D G C G C Am G 
Is that good enough tonight, hope that's good enough tonight


 C F C 
Lord, I got a heart full of hatred 
 C F G 
For me there sure ain't no cure 
 C F C 
I wake up and I'm running 
         G C  
I don't know what I'm running for 

The Rest You Can Live Without Tabs by Oceanship

 Okay this is just the main riff really. I'm not great at learning by ear or
tabbing but this is all I've made out of it but hey this could get you somewhere so enjoy.

Standard Tuning
Capo 4th Fret
Numbers are relative to capo positioning

e-------------------------------------------------------------------|
B-5----5--5--3-----------3---3--3------------3---3--3---------------|
G--------------5-4-2--------------5-4-2---------------5-4-2--4------|
D---------------------------------------5----------------------5--7-|
A-0----------------------5-------------------5----------------------|
E-------------------------------------------------------------------|


e--------------------------------------------------------------------|
8B-5----5--5--3-----------3---3--3------------3---3--3---------------|
G--------------5-4-2--------------5-4-2---------------5-4-2--4-------|
D---------------------------------------5----------------------5-----|
A-0----------------------5-------------------5-----------------------|
E--------------------------------------------------------------------|

Aint No Rest For The Wicked Tabs by Cage The Elephant V7

 Tuning is open G (DGDGBD)

USE A GUITAR SLIDE.

AINT NO REST FOR THE WICKED- CAGE THE ELEPHANT

INTRO

D|--------------------------|----------------------------------------|
B|--------------------------|----------------------------------------|
G|-0--3--0--3/5--0-(x3-3--5)|-0--3--0--3/5--0-3/5-5-5-5-5-5-5-5------|
D|-0--3--0--3/5--0-(x3-3--5)|-0--3--0--3/5--0-3/5-5-5-5-5-5-5-5------|
G|-0--3--0--3/5--0-(x3-3--5)|-0--3--0--3/5--0-3/5-5-5-5-5-5-5-5------|
D|--------------------------|----------------------------------------|

D|-----------------------|
B|-----------------------|
G|-0-3-0-x--0-3-0--0-3-0-|
D|-0-3-0-x--0-3-0--0-3-0-|
G|-0-3-0-x--0-3-0--0-3-0-|
D|-----------------------|

VERSE ("I was walking down the street...")

D|-------------------------------------------------------------------|
B|-------------------------------------------------------------------|
G|0-0--x--3-3--x--5-5--x--3-3-x---x-0-0----------3 times-------------|
D|0-0--x--3-3--x--5-5--x--3-3-x-3-x-0-0------------------------------|
G|0-0--x--3-3--x--5-5--x--3-3-x-3-x-0-0------------------------------|
D|----------------------------x-3-x----------------------------------|


on fourth time:

D|-------------------------------------------------------------------|
B|-------------------------------------------------------------------|
G|0-0--x--3-3--x--5-5--x--0-3-0---0-3-0------------------------------|
D|0-0--x--3-3--x--5-5--x--0-3-0---0-3-0------------------------------|
G|0-0--x--3-3--x--5-5--x--0-3-0---0-3-0------------------------------|
D|-------------------------------------------------------------------|


Hook ("There aint no rest for the wicked...")

D|-------------------------------------------------------------------|
B|-------------------------------------------------------------------|
G|3/12-12--3/5-5-5-5-5-5----------------repeat until verse-----------|
D|3/12-12--3/5-5-5-5-5-5---------------------------------------------|
G|3/12-12--3/5-5-5-5-5-5---------------------------------------------|
D|-------------------------------------------------------------------|


PLAY VERSE AGAIN
PLAY CHORUS AGAIN

SOLO:(not 100 percent sure, but you can play the chorus here if you think it sounds off.)


D|--------------------------------------------------------------------|
B|-9/12--7/9--------9/12--7/9--------9/12--7/9------9/12-7/9-9/12-7/9-|
G|-------------(9)---------------(9)-------------(9)------------------|
D|-----------9-----------------9----------------9---------------------|
G|--------------------------------------------------------------------|
D|--------------------------------------------------------------------|



PLAY FINAL VERSE
THEN PLAY FINAL CHORUS.
END WITH

D|-----|
B|--0--|
G|--0--|
D|--0--|
G|--0--|
D|-----|

My Rest chords – The Mvmnt Band

 Soooo this song is not very well known seeing as you can google it and it doesn't come 
up and youtube it with just as much success but they have a Facebook page! But this is my 
favorite song by them.
These are chords that my youth group's worship leader has, so any need for correction 
isn't my fault ;)

Chorus:
 G 
I run to You
 C 
And I fall at Your feet
     Em G D C 
Oh Father, in You I find my rest

Verse:
 C G 
I hold on to hope
 Em D C 
You told me You'd never let go
 C G 
I stir up my faith
        Em D C 
I remember Your promise each day
 C G 
And I lift my hands
    Em D C 
I embrace all Your love Lord as much as I can

Prechorus:
           C Em D 
And I'll never be the same as before  x2

Chorus

Verse

Prechorus

Chorus

Rest In You chords – Praise And Worship

 Intro:  A ,  Asus ,  A ,  Asus 

Verse 1:
 A Asus A Asus 
Your faithfullness  endures always
 A Asus A Asus 
Where mountains fall and reason fails

Pre-Chorus:
      E F#m D 
And You calm the raging seas
      E F#m D 
And You calm the storms in me, again

Chorus:
 Bm F#m D A E/G# 
All I know is I find rest in You
 Bm F#m D E 
All I know is I find rest in You

Instrumental:

e-2--2-2-2-2-4-2-4-5-2-5-0-|

Verse 2:
 A Asus A Asus 
My heart will praise  throughout the night
 A Asus A Asus 
Where singing seems  a sacrifice


Pre-Chorus

Chorus


Bridge (x2):
 D E/G# F#m 
Your grace is all I need
 D E F#m 
Your grace is all I need

Chorus (x2)

Ending:  D ,  A

Be Still My Soul In You I Rest chords – Kari Jobe V2

 Be still my soul (in you I rest)
Capo 1

 Em G C 

Verse 1      

               C2 Dsus G 
Be still, my soul, the Lord is on thy side

             C2 Dsus G  
Bear patiently the cross of grief or pain

              Em G Dsus 
Leave to thy God to order and provide

             G D Em 
In every change He faithful will remain

               C2 G Dsus 
Be still, my soul, thy best, thy heavenly friend
                  
                 G D G 
Through thorny ways leads to a joyful end

Be still, my soul, thy God doth undertake
To guide the future as He has the past
Thy hope, thy confidence, let nothing shake
All now mysterious shall be bright at last
Be still, my soul, the waves and winds still know
His voice Who ruled them while He dwelt below

Chorus

         Dsus D C2 G 
In you I rest, in You I find my hope

         Dsus D C2 G 
In you I trust, You never let me go

          Dsus D C2 G 
I place my life within your hands alone

  C2 D G 
Be still, my soul 


Verse 2

Be still, my soul, the hour is hastening on 
When we shall be forever with the Lord
When disappointed grief and fear are gone
Sorrow forgot, love's purest joys restored
Be still, my soul, when change and tears are past
All safe and blessed we shall meet at last

Chorus 2x

In you I rest, in You I find my hope
In you I trust, You never let me go
I place my life within your hands alone
Be still, my soul 

In you I rest, in You I find my hope
In you I trust, You never let me go
I place my life within your hands alone
Be still, my soul 3x

Be Still My Soul In You I Rest chords – Kari Jobe

 Be still my soul (in you I rest)
Capo 1

 Em G C 

Verse 1      

              C2 Dsus G 
Be still, my soul, the Lord is on thy side

             C2 Dsus G  
Bear patiently the cross of grief or pain

              Em G Dsus 
Leave to thy God to order and provide

            G D G 
In every change He faithful will remain


Be still, my soul, thy best, thy heavenly friend
Through thorny ways leads to a joyful end
Be still, my soul, thy God doth undertake
To guide the future as He has the past

Thy hope, thy confidence, let nothing shake
All now mysterious shall be bright at last
Be still, my soul, the waves and winds still know
His voice Who ruled them while He dwelt below

Chorus

       Dsus D C2 G 
In you I rest, in You I found my hope

         Dsus D C2 G 
In you I trust, You never let me go

         Dsus D C2 G 
I place my life within your hands alone

        C2 D G 
Be still, my soul 

Verse 2

               C2 Dsus G 
Be still, my soul, the hour is hastening on 

               C2 Dsus G 
When we shall be forever with the Lord

           Em G Dsus 
When disappointed grief and fear are gone

          G D Em 
Sorrow forgot, love's purest joys restored

            Em G Dsus 
Be still, my soul, when change and tears are past
                
                 G D G 
All safe and blessed we shall meet at last

Chorus 2x

In you I rest, in You I found my hope
In you I trust, You never let me go
I place my life within your hands alone
Be still, my soul 

In you I rest, in You I found my hope
In you I trust, You never let me go
I place my life within your hands alone
Be still, my soul 3x

God Rest Ye Merry Gentlemen chords – Misc Christmas V3

 Much easier tab! ~ stodman

God Rest Ye Merry Gentlemen

     Em  
God rest ye merry, gentlemen,
     C B7 
Let nothing you dismay;
   Em  
Remember Christ our Savior
     C B7 
Was born on Christmas Day
    Am G 
To save us all from Satan's pow'r
      Em D 
When we were gone astray.


Chorus:
   G B7 Em 
O tidings of comfort and joy,
             D 
Comfort and joy;
   G B7 Em 
O tidings of comfort and joy.


      Em  
From God our heavenly Father
   C B7 
A blessed angel came,
     Em  
And unto certain shepherds
         C B7 
Brought tidings of the same,
     Am G 
How that in Bethlehem was born
      Em D 
The Son of God by name.


Chorus:
   G B7 Em 
O tidings of comfort and joy,
             D 
Comfort and joy;
   G B7 Em 
O tidings of comfort and joy.


       Em  
"Fear not, then," said the angel,
      C B7 
"Let nothing you afright;
      Em  
This day is born a Savior
      C B7 
Of a pure virgin bright,
    Am G 
To free all those who trust in Him
      Em D 
From Satan's power and might."


Chorus:
   G B7 Em 
O tidings of comfort and joy,
             D 
Comfort and joy;
   G B7 Em 
O tidings of comfort and joy.

The Rest Of Us chords – Simple Plan

 chords - AdamD

Capo 1st fret - Standard Tuning


[Verse]
 C
I'm okay, I'm okay,
                         G
Kinda being awkward socially
  F
With the fact, with that girls
                                   G
Don't lose their shit when they look at me
 C
It's okay, it's okay,
                             G
That I'm not that good at anything
  F
And I don't hit the notes perfectly
         G
When I try to sing


[Pre-chorus]
 C Dm7
Oh-oh I know why I'm not alone
                           F G
So turn the music up and let go


[Chorus]
  C G
Here's to the rest of us
  F Am C
To all the ones that never felt they were good enough
 F C
I wanna hear it for the chased and confused
       G
The freaks and the losers
   F G
Let's point them out, here's to the rest of us
The rest of us

 C G F G  x2


[Verse]
I'm okay, I'm okay
I don't need to be a billionaire
(So fricking bad!)
And my trust fund hopes are looking sad
I confess, I'm a mess
I'm perfectly dysfunctional
But I don't give a damn
If you feel the same
Let me hear you sing


[Pre-chorus]


[Chorus]


[Chorus II - same chords]
Here's to the rest of us
We do it better than the rich and the fabulous
I wanna hear it for the nothing to lose
With something to prove
Let's point them out
Here's to the rest of us


[Bridge]
 F
Oh-oh Oh-oh
 Am G
We don't need to apologize for anything
 F
Oh-oh Oh-oh
 Am G
We're who we are, I just wanna hear you sing


[Pre-chorus II]
 C Dm7
Oh-oh I know why I'm not alone


[Chorus] + [Chorus II]


[Outro]
 C G F G
The lost, the geeks, the rejects, the losers
 C G F G
The wrong, the freaks, the hopeless, the future
 C G F G
The lost, the geeks, the rejects, the losers
 C G F G
The wrong, the freaks, the hopeless, the future
             C G F
The rest of us

Aint No Rest For The Wicked Acoustic intro Tabs by Cage The Elephant

 I wrote this intro for an acoustic cover I did and had requests to make a tab, so here 
it is:


E|-------------------------------------------------10--8-------------------------|
B|--------5h6p5----------------8--6-----6-----------------10h11------------------|
G|---------------7--5h7--------x-----7---------------------------10--------------|
D|--5--5-----------------------x-------------------------------------------3--3--|
A|--5--5-----------------8--8--------------10--10--------------------8--8--3--3--|
E|--3--3-----------------6--6--------------8---8---------------------6--6--1--1--|

Linkin Park – Leave Out All The Rest Chords

Intro   Am , C , F , D  2x


Verse
 Am 
I dreamed I was missing
 C 
You were so scared.
 F 
But no one would listen
 D 
Cuz' no one else cared.
 Am 
After my dreaming
 C 
I woke with this fear.
 F 
What am I leaveing,
 D 
When I am done here?
 F D 	
So if you're asking me I want you to know...

Chorus
 A5 
When my time comes
 C5 
Forget the wrong that i've done
 F5 D5 
Help me leave behind some reason to be missed.
 A5 
And don't resent me
 C5 
And when you're feeling empty
 F5 
Keep me in your memory
		 D5 Am 
Leave out all the rest,Leave out all the rest.

Verse
 C 
Don't be afraid
 F 
Of taking my beatings
 D 
Of shit behind me.
 Am 
I'm strong on the surface
 C 
Not all the way through.
 F 
I've never been perfect
 D 
But neither have you.
 F D 
So if you're asking me I want you to know...
Chorus

 A5 
When my time comes
 C5 
Forget the wrong that i've done
 F5 D5 
Help me leave behind some reason to be missed.
 A5 
And don't resent me
 C5 
And when you're feeling empty
 F5 
Keep me in your memory
		 D5 					
Leave out all the rest,Leave out all the rest.
 F5 
Forgetting
 			 D5 
All the hurt inside you've learned to hide so well.
 E5 
Pretending
			 C5 				 
Someone else can come and save me from myself.
 F5 D5 
I can't be who you are...

 A5 
When my time comes
 C5 
Forget the wrong that i've done
 F5 D5 
Help me leave behind some reason to be missed.
 A5 
And don't resent me
 C5 
And when you're feeling empty
 F5 
Keep me in your memory
		 D5 					
Leave out all the rest,Leave out all the rest.

 Am 
Forgetting
			 C 						
All the hurt inside you've learned to hide so well.
 F 
Pretending
			 D 
Someone else can come and save me from myself.

 Am C 						
I can't be who you are.
 F D 
I can't be who you are.



espero que les guse 

Linkin Park – Leave Out All The Rest

Verso

G|------------------|------------------|
D|------------------|------------------|
A|------------------|------------------|
E|---7--10--3--0----|---7--10--3--0----|

Pre coro

G------------------|
D------------------|
A------------------|
E---3-------0------|

Coro

G|------------------|------------------|
D|------------------|------------------|
A|------------------|------------------|
E|---7--10--3--0----|---7--10--15--12--|

Verso

G|------------------|------------------|
D|------------------|------------------|
A|------------------|------------------|
E|---7--10--3--0----|---7--10--3--0----|

Pre coro

G|------------------|
D|------------------|
A|------------------|
E|---3-------0------|

Coro

G|------------------|------------------|
D|------------------|------------------|
A|------------------|------------------|
E|---7--10--3--0----|---7--10--15--12--|

Puente
G|------------------|------------------|
D|------------------|------------------|
A|------------------|------------------|
E|---3-------0------|---7--10--3--0----|

Coro

G|------------------|------------------|
D|------------------|------------------|
A|------------------|------------------|
E|---7--10--3--0----|---7--10--15--12--|

Outro 

G|------------------|------------------|
D|------------------|------------------|
A|------------------|------------------|
E|---7--10--15--12--|---15--12--7--10--|