Tag: Riff

Serious Sam 3 – Battle Theme Temple Tabs by Misc Computer Games

 --Serious Sam 3: BFE Battle theme (Temple)--

Played in standard tuning (EADGBe)

|---------|
|---------|
|---------|
|-12\\\\\-|
|-12\\\\\-|
|-12\\\\\-|
Slide

{
|-----------------------| X3
|-----------------------|
|-----------------------|
|---------2---2-2---2-2-|
|---------2---2-2---2-2-|
|-0-0-0-0-0-0-0-0-0-0-0-|
  . . . .   .   . .  

|-----------------------|
|-----------------------|
|-----------------------|
|---------3---3-3---3-3-|
|---------3---3-3---3-3-|
|-1-1-1-1-1-1-1-1-1-1-1-|
  . . . .   .   . .  
}

Play above 8X


(Start this riff at 4X)

|--------------------------------------------------------------------------------------| X4
|--------------9-10-12h13-12h13-12~-12-13-15b16r15-12-10-12-13-12-10-12-12b13r12-10----|
|-9h10-9h10-9~----------------------------------------------------------------------10-|
|--------------------------------------------------------------------------------------|
|--------------------------------------------------------------------------------------|
|--------------------------------------------------------------------------------------|


|---|
|---|
|---|
|-2-|
|-2-|
|-0-|

leave to ring until end.

Writen by myself and a friend after the high riff was stuck in our heads after playing.
Inspired heavily by this guys cover (Blackluc):



Key:

Palm mute        .
hammer on        h
bend             b
slide            \

Dead Mans Hand On You Tabs by Children Of Bodom

 Children Of Bodom
Dead Man's Hand On You
Halo Of Blood (2013)
 Mike Shaheen
 ever, but this should be 99% accurate
Tuning - DAFGCD
Key:
(\) Slide Down


This melody should get you through the entire song, however about 2/3
through the song Alexi does some wicked solo riffs and I have yet to tab
that out, but this melody will get you though that part if you repeat it.
This is by far the easiest Bodom song you can learn.

The best way to read this is there are 4 riffs, and they go in the following order:
1, 2, 1, 2,
1, 3, 1, 4,
1, 3, 1, 4,
1, 3, 1, 4


Riff 1:

D|-------------------------------------------------|
A|-------------------------------------------------|
F|--------0-----------0-----------0----------------|
G|-----7-----7-----7-----7-----7-----7-----7\5-----|
C|--5-----------5-----------5-----------5-------3--|
D|-------------------------------------------------|

Riff 2:

D|----------------------------------------------------|
A|-------------------------------------------------0--|
F|--------0-----------0------------0------------5-----|
G|-----7-----7-----7-----7-----10-----10-----7--------|
C|--5-----------5-----------8-------------7-----------|
D|----------------------------------------------------|

Riff 3:

D|--------------------------------------------------|
A|--------------------------------------------------|
F|--------------5--------------------5--------------|
G|-----------7-----8--7--5--7-----7-----7-----5--5--|
C|--5--7--8--------------------8-----------7--------|
D|--------------------------------------------------|

Riff 4:

D|--------------------------------------------------|
A|-----------------------------------5-----------5--|
F|--------------5-----------5-----5-----5-----5-----|
G|-----------7-----8--7--8-----7-----------7--------|
C|--5--7--8-----------------------------------------|
D|--------------------------------------------------|

We Sing Like Jailbirds Tabs by Picture Atlantic

 The alternate tuning is sort of optional for this song. The 6th string is really 
only used sometimes as a bass note between measures. You can leave it as an E if 
you don't mind losing that detail.

You can also just use C instead of Cadd4. The Cadd4 is my personal preference. =]


The picking pattern looks something like this for each chord:

        C             Cadd4             Em              F
e|--------0-----|---------------|---------------|---------------|
B|-----------1--|--------1------|--------0------|--------1------|
G|------0-------|-----------0---|-----------0---|-----------2---|
D|---2----------|-----3---------|-----2---------|-----3---------|
A|--------------|--3------------|--2------------|--3------------|
C|--------------|---------------|---------------|---------------|
It's slightly different in some parts of the song, but this is the general pattern.




"We Sing Like Jailbirds"
by Picture Atlantic


Intro: C

Riff:
e|-----------0-----------0----------0----------|
B|--------------1-----------1----------1-------|
G|--------2--------------------0h2-------------|
D|-----2------------0h2-------------------0h2--|
A|---------------------------------------------|
C|(0)~-----------------------------------------|

Verse:
C                                Em
First the thought and then the seed

F                       C      
I am parched and beyond peace

                          Em
It's not like I enjoy the act

               F                   C
I just need to drown this panic attack



Chorus:
C               Cadd4             F
There's really nothing here to see

               Em                 C
We sing like jailbirds when we drink

              Cadd4              F
We've gone a couple cups too deep

                Em                  F
We sing like jailbirds when we drink

                       C
We sing like jailbirds


[Riff]

Verse:
C                       Em
My holy father sheds a tear

      F                C
I repent each time I'm here

                           Em
Worried more than I should be

          F               C
A pint of ignorance for me



Chorus:
C               Cadd4             F
There's really nothing here to see

               Em                 C
We sing like jailbirds when we drink

             Cadd4                F
You really shouldn't be calling me

                 Em                    F
You sing like a jailbird when you drink

                        Cadd4
We sing like jailbirds when we drink

                        F
We sing like jailbirds when we drink

                      Cadd4
We sing like jailbirds

                      C
We sing like jailbirds



Outro: C

Daddy Longlegs Tabs by Black Lips

 For most of the song, this riff is played:

e-------------------------------------|
b-------------------------------------|
g----------------------------2-2------|
d-----------2-2----0-0-0-0-3----3-----|
a-0-0-0-0-3-----3---------------------|
e-------------------------------------|

At the bridge "I aint never comin back", this is played: 3X

e-------------------------------------|
b-------------------------------------|
g-------------------------------------|
d-3---3---3---3---0---0---0---0-------|
a---3---3---3---3---0---0---0---0-----|
e-------------------------------------|

then

e---------------------------|
b---------------------------|
g---------------------------|
d-2-2-----------------------|
a-----3-3-0-0-0-0-0-0-0-0---|
e---------------------------|

For the Solo, these chords are played (listen to song for rhythm)

Em and D, i find it sounds better if you do Em in the A form, the D chord can 
really go either way.

The D chord isn't by itself, it goes like this:

e-5-------------|
b-7-7-7-8-8-7-7-|
g-7-7-----------|
d-7-------------|
a-5-------------|
e-x-------------|

Tablature by: Austin Wiseman

Same On The Inside Tabs by Stone Temple Pilots

 STP - Same on the Inside
'High Rise'
Drop-D Tuning
 jjhand

STP has several timing changes in the riffs of this song but it has a good beat
and interesting guitar and bass riffs throughout. Please rate or comment.


Intro/Main Riff - Repeated During Verse

   6/4 time                 4/4 time
e|------------------------|------------------|-------------------|
B|-10-9--8---7---7---5----|------------------|-------------------|
G|--9-9--9---7---7---7--7-|------------------|-------------------|
D|--0-0--0---0---0--------|-7-7-7-7-7-7----7-|----7-7-7-7-7-7----|
A|------------------------|-0-0-0-0-0-0----0-|----0-0-0-0-0-0----|
D|------------------------|------------------|-------------------|


Prechorus riff, pt 1:

played 4x
e|-----------------|---------------------|
B|-1-1-1-1---1---3-|-(3)---3-----3-3-----|
G|-2-2-2-2---2---2-|-(2)---2-----2-2-----|
D|-2-2-2-2---2---4-|-(4)---4-----4-4-----|
A|-3-3-3-3---3---5-|-(5)---5-----5-5-----|
D|-------------0---|-(0)---0-----0-0-----|

  pt 2:

   7/8 time              4/4 time
e|---------------------|--------------------|-----------------------|
B|---------------------|-12---12------12-12-|-10---10------10-10----|
G|---------------------|--9----9-------9--9-|--9----9-------9--9----|
D|---------------------|-10---10------10-10-|-10---10------10-10----|
A|----2--3--5--7--10-9-|--0----0-------0--0-|--0----0-------0--0--0-|
D|-0--0--0--0--0--0--0-|--------------------|-----------------------|


Chorus -

   play 2x
e|-5-----5-----5--5--5----|------------------------|
B|-5-----5-----5--5--5----|---7---7-------7--7-----|
G|-5-----5-----5--5--5----|---7---7-------7--7--0--|
D|-5-----5-----5--5--5--5-|---4---4-------4--4--0--|
A|-3-----3-----3--3--3--5-|---5---5-------5--5-----|
D|------------------------|------------------------|

e|-5-----5-----5--5-----3-|-------3-------3--3-----|-2------|
B|-5-----5-----5--5-----3-|-------3-------3--3-----|-3------|
G|-5-----5-----5--5-----0-|-------0-------0--0--0--|-2------|
D|-5-----5-----5--5--x--x-|-------x-------x--x--0--|-4------|
A|-3-----3-----3--3--x--2-|-------2-------2--2-----|-0------|
D|------------------------|------------------------|--------|




Play Main Riff Again 2x


Play Prechorus Again


Play Chorus again, but ending changes to:

play 2x
e|-5-----5-----5--5-----3-|-------3-------3--3-----|-2----2----2-2---|
B|-5-----5-----5--5-----3-|-------3-------3--3-----|-3----3----3-3---|
G|-5-----5-----5--5-----0-|-------0-------0--0--0--|-2----2----2-2---|
D|-5-----5-----5--5--x--x-|-------x-------x--x--0--|-4----4----4-4---|
A|-3-----3-----3--3--x--2-|-------2-------2--2-----|-0----0----0-0---|
D|------------------------|------------------------|-----------------|

e|-5-----5-----5--5-----3-|-------3-------3--3-----|
B|-5-----5-----5--5-----3-|-------3-------3--3-----|
G|-5-----5-----5--5-----0-|-------0-------0--0--0--|
D|-5-----5-----5--5--x--x-|-------x-------x--x--0--|
A|-3-----3-----3--3--x--2-|-------2-------2--2-----|
D|------------------------|------------------------|

e|-7-----7-----7--7--7--7--|-7--7--7--7--7--7--7--7-|
B|-7-----7-----7--7--7--7--|-7--7--7--7--7--7--7--7-|
G|-7-----7-----7--7--7--7--|-7--7--7--7--7--7--7--7-|
D|-7-----7-----7--7--7--7--|-7--7--7--7--7--7--7--7-|
A|-5-----5-----5--5--5--5--|-5--5--5--5--5--5--5--5-|
D|-------------------------|------------------------|


Play Prechorus Pt 2


Play Chorus with similar ending to the second time, repeated until end:

e|-5-----5-----5--5-----3-|-------3-------3--3-----|-2----2----2-2-2-|
B|-5-----5-----5--5-----3-|-------3-------3--3-----|-3----3----3-3-3-|
G|-5-----5-----5--5-----0-|-------0-------0--0--0--|-2----2----2-2-2-|
D|-5-----5-----5--5--x--x-|-------x-------x--x--0--|-4----4----4-4-4-|
A|-3-----3-----3--3--x--2-|-------2-------2--2-----|-0----0----0-0-0-|
D|------------------------|------------------------|-----------------|

Shes A Star chords – David Choi

 Key of A

Capo 2

Intro:  G Bm C Cm G 
She's a star from the heavens
           Bm 
That fell down to the earth
                Em 
She'll make you swoon
                 Dm G 
Fly up like a balloon

 C 
I just don't know what it is
 Cm 
Something bout her just makes me wish
      Bm A#m Am D 
That I~        was the moon

         G C 
She's a star ah ah ah ah ah
         G C 
She's a star ah ah ah ah ah

 Am 
I hope she don't go shooting away
           D 
Like them others do
                    G Bm C Cm  (Intro Riff)
I wanna be the moon

        G 
It's a race with the ticking tock
    Bm 
A life that I can't define
       Em 
I was lost
                    Dm G 
But I think that I found the one

 C 
Oh I just don't know what it is
 Cm 
My orbit's on track and I can't miss
      Bm A#m Am D 
This has got-      -ta be it

         G C 
She's a star ah ah ah ah ah
         G C 
She's a star ah ah ah ah ah

 Am 
I hope she don't go shooting away
           D 
Like them others do
                    G 
I wanna be your moon

Guilty All The Same chords – Linkin Park

 not 100% correct, but okay :) sorry for bad english

Intro:

 Dm A Bb F 


Verse :

         Dm     
Tell us all again
          A               
What you think we should be
          Bb  
What the answers are
         F  
What it is we can't see
         Dm 
Tell us all again
        A  
How to do what you say
        Bb  
How to fall in line
             F 
How there's no other way
     B C A 
But oh, we all know


Chorus (2x):

                       Dm 
You're guilty all the same
                  A 
Too sick to be ashamed
                        Bb 
You want to point your finger
                            F 
But there's no one else to blame
                       Dm   
You're guilty all the same


Intro

Verse

Chorus 2x

Riff:

You can play the little riff with the chords shown below. Figure out the strumming 
by listening to the song.

                         A 
There's no one else to blame
                Dm A Bb A Dm A  
Guilty all the same
 A Bb Dm Dm A Bb A Dm A 
Guilty all the same
        A Bb Dm Dm A Bb A Dm A  
You're guilty all the saaaaaaaame
 A Bb Dm 


Verse:

 Dm Bb Dm Bb  

Just repeat this chords. Again, listen to the song to figure out how to strum it.


Chorus 2x

Riff

Hold On Were Going Home Tabs by Arctic Monkeys

 Arctic Monkeys cover Drake's song "Hold On, We're Going Home".
This cover have a lot of views in youtube and, consequently, also a lot of search a 
guitar tab, including me. But I didn't seen any tab for this song.
It's a great music for playing and for beginners.
Hope I help in something.

Use delay and reverb.

Intro:

e|---------|-----------|
B|---------|-----------|
G|---------|-----------|
D|---------|-----------|    2x
A|--4-2-0--|--0-------0|
E|---------|----2-0-2--|


Verse:

Chords first, and riff after

    A6     F#m     E

e|--9---|--9---|--7--|
B|--7---|--10--|--9--|
G|--9---|--11--|--9--|   2x
D|--7---|--11--|--9--|
A|------|--9---|-----|
E|------|------|-----|

    A6

e|--9---|
B|--7---|
G|--9---|
D|--7---|
A|------|
E|------|


e|-----------|
B|-----------|
G|-----------|    4x
D|-----------|
A|--0-------0|
E|----2-0-2--|


Chorus:

- fast picking, which will enhance the delay


e|-----------------------|
B|--1414141414--12~--10--|
G|-----------------------|   8x
D|-----------------------|
A|-----------------------|
E|-----------------------|


- Repeat verse

- Repeat Chorus


Final Verse:

    A6     F#m     E

e|--9---|--9---|--7--|
B|--7---|--10--|--9--|
G|--9---|--11--|--9--|   2x
D|--7---|--11--|--9--|
A|------|--9---|-----|
E|------|------|-----|


e|--------------------------------------17--|
B|--10--12--14--17--14--12--10--12--14------|
G|------------------------------------------|
D|------------------------------------------|
A|------------------------------------------|
E|------------------------------------------|


e|--------------------------------------17--14--12--------------------------------------17~~|
B|--10--12--14--17--14--12--10--12--14--------------10--12--14--17--14--12--10--12--14------|
G|------------------------------------------------------------------------------------------|
D|------------------------------------------------------------------------------------------|
A|------------------------------------------------------------------------------------------|
E|------------------------------------------------------------------------------------------|


This is my first ever tab so any ratings, comments or improvements would be appreciated.
Thank you.

Birmingham Shadows Tabs by Bruce Cockburn

 -----------------------------------------------------------------------------
                             Birmingham Shadows - Bruce Cockburn
-----------------------------------------------------------------------------

: Daniel Reilly
 joppadaydream

The song is the work and creation of Bruce Cockburn 
Charity of Night.

Tuning: Standard
Capo 2nd fret

Verse:

                 Em7         Em7    Asus4
|--------------------------------|------------0-------0-------0---|
|----------------3-----------3---|----3-----------3-------3-------|
|----------------0-----------0---|----2---------------------------|
|----------------2-----------2---|----2---------------------------|
|----------------2-----------2---|----0---------------------------|
|0---------------0-------0---0---|--------------------------------|

(lyrics spoken over riff above)

Birmingham
Just behind the mountain
Sparse streelamps glow in hot half-moon haze
Shadows shorten into little black pools that elongate behind
We walk, talk some, laugh some
Worked hard, now wired, and hanging out
I'm curious what you might be all about
Curious, too, what that dark-shape in the hard shining cruiser might do
And you have no idea what you're getting 
out of of your own curiosity and tense energy
Tattoo on chest like the key to the puzzle of your pumping heart
Wearing your shadows all over your sleeve
Wearing the role of young upstart

Chorus:
G6                   A7sus4add6  Dsus2          Asus4
|0-------------------------------|--------------------------------|
|3-------3-----------3---3-------|3---------------3---------------|
|4---6-------6-------4---0-------|2---------------2---------------|
|5-------------------5---4-------|0---------------2---------------|
|------------------------0-------|----------------0---------------|
|--------------------------------|--------------------------------|

G6                A7sus4add6
Birmingham shadows fall.
Dsus2              Asus4
You show a little, I let something show too
G6                A7sus4add6
It's now or not at all
Dsus2            Asus4
Out on the road, it's always instant get-to-know-you

verse 2:

                 Em7         Em7    Asus4
|--------------------------------|------------0-------0-------0---|
|----------------3-----------3---|----3-----------3-------3-------|
|----------------0-----------0---|----2---------------------------|
|----------------2-----------2---|----2---------------------------|
|----------------2-----------2---|----0---------------------------|
|0---------------0-------0---0---|--------------------------------|

(lyrics spoken over repeated riff above)
Under velvet trees, towering like the sides of a well
Before the empty two office blocks
Which we're admonished not to enter
Policeman studies us, finds us confusing
More amusing than threat
Moves on, bemused
Pavement spirals down ahead like the fossil of a giant shell
Along the kingdom's midnight marches
I wear my shadows where they're harder to see
But they follow me everywhere
I guess that should tell me that I'm travelling toward light
I guess something you sang made me remember that
I guess I'm saying thanks for that

Chorus:
G6                   A7sus4add6  Dsus2          Asus4
|0-------------------------------|--------------------------------|
|3-------3-----------3---3-------|3---------------3---------------|
|4---6-------6-------4---0-------|2---------------2---------------|
|5-------------------5---4-------|0---------------2---------------|
|------------------------0-------|----------------0---------------|
|--------------------------------|--------------------------------|

G6                A7sus4add6
Birmingham shadows fall.
Dsus2              Asus4
You show a little, I let something show too
G6                A7sus4add6
It's now or not at all
Dsus2            Asus4
Out on the road, it's alw

Magic Tabs by Coldplay V4

 -------------------------------------------------------------------------------
                             MAGIC - Coldplay
-------------------------------------------------------------------------------
: Erik Alfredsson
 erik_alfredsson AT hotmail.com

Tuning: Standard, CAPO on 2nd fret


First I'll give you some tablature, then the chords:

INTRO-RIFF:

e|-----------|--------------|-----------|-------------|
B|-----------|--------------|-----------|-------------|
G|-----------|--------------|-----------|-------------|
D|-2-2-2-2-2-|-2-2-2------4-|-4-4-4-4-4-|-4-4-4-----2-|
A|-----------|--------2-2---|-----------|--------5-5--|
E|-----------|--------------|-----------|-------------|

SOLO (When I fall):

e|-----------|--------------|-----------------|-------------|
B|-----------|--------------|-----------------|-------------|
G|-----------|--------------|-7-------7-------|-------------|
D|-2-----2s/-|-/5-------s/7-|-----7-------7---|-(7)---------|
A|-----------|--------------|-----------------|-------------|
E|-----------|--------------|-----------------|-------------|

e|-------------|-------------------|-------------------|------------------|
B|-------------|-------------------|-------------------|------------------|
G|-------------|--------------5h7--|-7-----7------s/14-|-(14)-------------|
D|-2-------0h2h|5----------5h7---5-|----7--------------|------------------|
A|-------------|-------------------|-------------------|------------------|
E|-------------|-------------------|-------------------|------------------|

e|--------------------------------|----------------------------|
B|-12----12---12----12---12----12-|-12-----------12------------|
G|----14---------14---------14----|-----14-----------14-----14-|
D|--------------------------------|---------12-----------12----|
A|--------------------------------|----------------------------|
E|--------------------------------|----------------------------|

CHORDS USED:

     C       G       D      G/B
e|---0------(3)------2----------------|
B|---1-------0-------3-------0--------|
G|---0-------0-------2-------0--------|
D|---2-------0-------0-------0--------|
A|---3-------2---------------2--------|
E|-----------3------------------------|

INTRO: 
C - G - D - G/B

G/B     C         G       D
Call it magic, or call it true
G/B       C           G        D
I call it magic, when I'm with you
G/B            C       G           D
And I just got broken, broken into two
G/B             C               G       D     G/B
Still I call it magic, when I'm next to you

C
And I don't, no I don't, no I don't, no I don't
G
No I don't, it's true
D
I don't, no I don't, no I don't, no I don't
             G/B
Want anybody else but you

C
I don't, no I don't, no I don't, no I don't
G
No I don't, it's true
D
I don't, no I don't, no I don't, no I don't
             G/B           C
Want anybody else but you
G           D        
Oh-oh-oh-oh-oooooh

G/B     C      G           D
Call it magic, cut me into two
G/B               C         G             D
And with all your magic, I disappear from view
G/B             C              G     D
And I can't get over, can't get over you
G/B             C                    G        D     G/B
Still I call it magic, you're such a precious jewel

C
And I don't, no I don't, no I don't, no I don't
G
No I don't, it's true
D
I don't, no I don't, no I don't, no I don't
             G/B
Want anybody else but you

C
I don't, no I don't, no I don't, no I don't
G
No I don't, it's true
D
I don't, no I don't, no I don't, no I don't
             G/B           
Want anybody else but you

          C     G       D     G/B
I want to fall, fall so far
          C     G       D
I want to fall, fall so hard
      G/B      C     G       D
And I call it magic, call it true
G/B      C         G    D
I call it maaaaagic

G/B              C
Oh-o

Again Tabs by Archive V2

 -----------------------------------------------------------------------------
                             Again - Archive
-----------------------------------------------------------------------------
: Clint W

Tuning:Dropped D
D A D G B e

This is just the one riff, you know which one i'm talking about

e|--------------------------------------------------------------------------|
B|--------------------------------------------------------------------------|
G|--------------------------------------------------------------------------|
D|------2---2-3--------2---2--2-3---------------2---2-3--------2---2--2-3---|
A|--------0--------------0------------------------0--------------0--------3-|
D|-0---------------0-----------------------0---------------0----------------|

e|--------------------------------------------------------------------------|
B|--------------------------------------------------------------------------|
G|--------------------------------------------------------------------------|
D|------2---2-3--------2---2--2-3---------------2---2-3--------2---2--2-3---|
A|-1------1-------1------1-----------------1------1--------------1----------|
D|--------------------------------------------------------------------------|

Hide And Seek Tabs by Nonpoint V2

 Nonpoint: Hide And Seek

: mysticguitar77

YouTube Channel: MysticGuitar77

Date last modified: March 2, 2014

Tuning: Drop C (C,G,C,F,A,D)

Riff 1
D|-----------------------------------------------------------------------|
A|-------6--6-6----------------------------------------------------------|
F|-------5--5-5-10-10-10-10-12-12-12-----5-9-5--5-5----------------------|
C|-7-7-7-7--7-7-10-10-10-10-10-10-10-7-7-7-7-7--7-7-10-10-10-10-12-12-12-|
G|-5-5-5-5--5-5-8--8--8--8--8--8--8--5-5-5-5-5--5-5-10-10-10-10-10-10-10-|
C|-0-0-0-----------------------------0-0------------10-10-10-10-10-10-10-|

D|----------------------------------------------|
A|----------------------------------------------|
F|----------------------------------------------|
C|-12\8-8-8-10-10-10-10-12-12-12-12-10-10-10-10-|
G|-10\8-8-8-8--8--8--8--8--8--8--8--8--8--8--8--|
C|-10\8-8-8-8--8--8--8--8--8--8--8--8--8--8--8--|

D|-----------------------------------------|
A|-----------------------------------------|
F|-----------------------------------------|
C|-8-8-8-8-10-10-10-10-------------8-8-8-8-|
G|-8-8-8-8-8--8--8--8--12-12-12-12-8-8-8-8-|
C|-8-8-8-8-8--8--8--8--8--8--8--8--8-8-8-8-|

Play Riff 1 x2

Riff 2   "Forearms can't cover up lies in hiding..."
D|----------------------------------------------------------------|
A|----------------------------------------------------------------|
F|-----7/9-----------10-----12-----7/9----------------------------|
C|-0-0-----10-p0---------------0-0-----10-p0-------10-------10h12-|
G|---------------8-8----8-8---------------------------------------|
C|-------------------------------------------10-10----10-10-------|
   * *           * *    * *    * *           *  *     *  *

D|-------------------------------------------------------------|
A|-------------------------------------------------------------|
F|-------------------------------------------------------------|
C|-----8h10-10-10-----8h10-12-12-----8h10-10-10-----8h10-12-12-|
G|----------8--8-----------8--8-----------8--8-----------8--8--|
C|-8-8------8--8--8-8------8--8--8-8------8--8--8-8------8--8--|
   * *            * *            * *            * *

D|----------------------------------------------------------------|
A|----------------------------------------------------------------|
F|-----7/9-----------10-----12-----7/9----------------------------|
C|-0-0-----10-p0---------------0-0-----10-p0-------10-------10h12-|
G|---------------8-8----8-8---------------------------------------|
C|-------------------------------------------10-10----10-10-------|
   * *           * *    * *    * *           *  *     *  *

D|---------------------------------------------|
A|---------------------------------------------|
F|---------------------------------------------|
C|-8-8-8-8-10-10-10-10-12-12-12-12-10-10-10-10-|
G|-8-8-8-8-8--8--8--8--8--8--8--8--8--8--8--8--|
C|-8-8-8-8-8--8--8--8--8--8--8--8--8--8--8--8--|

D|-----------------------------------------|
A|-----------------------------------------|
F|-----------------------------------------|
C|-8-8-8-8-10-10-10-10-------------8-8-8-8-|
G|-8-8-8-8-8--8--8--8--12-12-12-12-8-8-8-8-|
C|-8-8-8-8-8--8--8--8--8--8--8--8--8-8-8-8-|

Riff 3    "This time..."
D|---------------------------------------------------------------------|
A|---------------------------------------------------------------------|
F|-------9-9-9-9---------------------------9-9-9-9---------------------|
C|-7-7-7-7-7-7-7-10-10-10-10-8-8-8-8-7-7-7-7-7-7-7-10-10-10-10-5-5-5-5-|
G|-5-5-5-5-5-5-5-10-10-10-10-8-8-8-8-5-5-5-5-5-5-5-10-10-10-10-5-5-5-5-|
C|-0-0-0---------10-10-10-10-8-8-8-8-0-0-0---------10-10-10-10-5-5-5-5-|

Play Riff 3 x2   "It's my turn, it's not your turn..."
Play Riff 1 x2   "Counting helps the hiding..."
Play Riff 2 x1   "Why should it make sense..."
Play Riff 3 x2   "It's my turn, it's not your turn..."
Play Riff 1 x2   "Counting helps the hi

A Question Mark chords – Elliott Smith

 Elliott Smith - A Question Mark

Chords used (in order of appearance):
 D :     xx0232
 D/Db :  x40232 (mostly you're just walking down using the Db note)
 D/A :   x00232 (mostly you're just walking down using the A note)
 C/G :   332010
 C :     x32010
 E :     022100
 C6 :    8x7980
 B7 :    x21202
 B7/Gb : 2x1202
 Cmaj7 : 8'10'10'900
Badd11:799800
 Gmaj7 : 3x0002
 Am :    x02210
 Am *:   577555
 B :     799877

Intro (note: play this for the first line of both verses):
  D               / Db  / A C/G 
|---------------------------------|
|---------------------------------|
|---------------------------------|
|---------------------------------|
|---------------------------------|
|10--10--10--10--9---5---3b-------| E 
|0---------s4--2--0--------s4--2--|
|0----------0--0--0---------0--0--|
|1---------s4--2--1--------s4--2--|
|2----------------2---------------|
|2----------------2---------------|
|0----------------0---------------|

riff 2:
  E 
|0----------0--0--0---------0--0--|
|0----------3--0--0---------3--0--|
|1----------4--2--1---------4--2--|
|2----------0--0--2---------0--0--|
|2----------5--4--2---------5--4--|
|0----------------0---------------|

Verse:
 D            / Db  / A C/G E     riff 1
 I've got a question, Mark.
 D                          / Db   / A C E     riff 1
 You got a need to always take some shot in he dark.
 C6 B7       / Gb E     riff 2
 I don't have to make pretend the picture i'm in is totally clear.
                C6 B7        / Gb E 
You think that all things have a way they ought to appear.

Chorus:
            Cmaj7      Badd11     Cmaj7 E 
'Cause you know, you know, you know, you know,
     Cmaj7      Badd11     Cmaj7 E 
you know, you know, you know, you know,
     Cmaj7    Badd11    Cmaj7 
you know, I don't, I dream.
 Cmaj7      Badd11     Cmaj7 E 
Don't know what you mean.

Verse:
 D                          / Db   / A C/G E     riff 1
 Panic called you out and took you in.
 D                    / Db   / A C E     riff 1
 Giving you an easy game and letting you win.
 C6 B7     / Gb E                riff 2
 You're giving back a little hatred now to the world, 'cause it treated you bad.
                       C6 B7         / Gb E 
 'Cause you couldn't keep the great unknown from making you mad.

Chorus:
            Cmaj7      Badd11     Cmaj7 E 
'Cause you know, you know, you know, you know,
     Cmaj7      Badd11     Cmaj7 E 
you know, you know, you know, you know,
     Cmaj7    Badd11    Cmaj7 
you know, I don't, I dream.
 Cmaj7      Badd11     Cmaj7 E 
Don't know what you mean.

Bridge:
 Gmaj7 Am C E  walkup     Am D 
   said your final word but honesty and love could've kept us together
 Gmaj7 Am C E  walkup       Am 
   one day you'll see it's worth it aft

Flight Of The Ibis chords – Mcdonald And Giles

 Riff 1:                        Riff 2:
---------------------------    ------0-----0-----0-----0--------|
--5-5-----------5-4--------    ----0-----0-----0-----0-----0----|
--6-4-6-4-----------4---4--    --2-----2-----2-----2-----2---2--|
------7-6-6---6-------6----    ---------------------------------|
----------7-7--------------    ---------------------------------|
---------------------------    ---------------------------------|



    Intro:  C#m A E G#m7 D A E G#m7 D A 
Look into your eyes, your eyes look away,
   E G#m7 D A 
I want to reach you now but there's nothing I can say.
 E G#m7 D A E G#m7 A E     Riff 1
I try  hard to see you but can't say what I want to.
 C#m B A C#m B A C#m B A       Riff 2    E 
Love, love is why, love, we've begun, love, let it come.

 E G#m7 D A 
You are but a child of the stars and the sky,
 E G#m7 D A 
We are just too young for the wind flying high.
 E G#m7 D A E G#m7 D A 
You've held me in a wind storm, through struggle we are driven.

     Instr:  E G#m7 D A   (2x), then  E , Riff 1

      C#m B A C#m B A C#m B A       Riff 2    E 
Love, love is why, love, we've begun, love, let it come.

 E G#m7 D A 
Look into your eyes, let your eyes look at me,
 E G#m7 D A 
We have been as one and as one as we can be.
 E G#m7 D A E G#m7 D A           Riff 2    E 
Sad no man soon are nothing, love is all, all is lovely.

Rango chords – Catfish And The Bottlemen

 -------------------------------------------------------------------------------
                             RANGO - Catfish and the Bottlemen
-------------------------------------------------------------------------------
: Ben Musgrove
 mussyjunior@hotmail.co.uk

Tuning: Standard

Main riff:

e|---------------------------------------------------------------------------|
B|---8---8---8---8---8---8-----8-----12----12----12---12---12---12---12------|
G|-9---9---9---9---9---9---9-7---7s12---12----12----12---12---12---12--12-11-|
D|---------------------------------------------------------------------------|
A|---------------------------------------------------------------------------|
E|---------------------------------------------------------------------------|
    x2


Verse:

             Em 
Darlin' I'm done for once
        D G 
And as soon as I get out of here
           Em 
I plan on coming back for nothing
     D G 
But then again there's you
                   Em 
And although this town does flaunt
         D G 
All the stuff you need to feel at home
           Em 
I plan on taking from it nothing,
     D G 
But then again there's you


Chorus:

 C D Em 
Abby she's got to wait
            C D G 
Until she gets you on your own
            C D Em 
So she can make you make mistakes
             C D G 
And you can offer to take her home

Verse and chorus remain the same throughout, with nothing more than dynamic changes 
varying between them. Play it by ear and get a feel for how you want to deliver it.

Solo:

e|--------------------------------------------------------------------------|
B|-13b15~-12-12-12-10-10-10----------------12-12-12-10-10-10----------------|
G|--------------------------12-12-9b10r9-7-------------------12-12-9b10r9-7-|
D|--------------------------------------------------------------------------|
A|--------------------------------------------------------------------------|
E|--------------------------------------------------------------------------|
    x2

Verse rhythm plays under it.

Lyrics:

Darlin' I'm done for once
And as soon as I get out of here
I plan on coming back for nothing
But then again there's you
And although this town does flaunt
All the stuff you need to feel at home
I plan on taking from it nothing,
But then again there's you

Abby she's got to wait
Until she gets you on your own
So she can make you make mistakes
And you can offer to take her home

It's not like I don't miss it none
But the quicker I drink more in here
The quicker I lose track of you
But I know you wouldn't want that
And although this town does flaunt
Much thicker stories than I care to talk
Darling you you've ducked them in style
I'll always love you for that

Abby she's got to wait
Until she gets you on your own
So she can make you make mistakes
And you can offer to take her home
And now she's wearing that top you love
And she's topping it all off
By acting like somethings up
She always knew how to pull the strings

Abby she's got to wait
Until she gets you on your own
So she can make you make mistakes
And you can offer to take her home
And now she's wearing that top you love
And she's topping it all off
By acting like somethings up
She always knew how to pull the strings

You Are God Alone Tabs by William Mcdowell

 This is the tabs and chords for William McDowell - You Are God Alone.
I used the video on YouTube, and wrote everything according to my ear. Like it and 
let me know what you think

Tabs By: Jeffrey Attakorah
Youtube link: http://www.youtube.com/watch?v=PHgTlbXuAgI


Intro: 
e|----------------------------------------------------------------------|
B|----------------------------------------------------------------------|
G|----------------------------------------------------------------------|
D|-----------------------------10-9~--9-10-12---------------------------|
A|-------9--12-10~----9-10-12-----------------10~---10-9----------------|
E|-10-12-------------------------------------------------12-10-12~------|

e|----------------------------------------------------------------------|
B|----------------------------------------------------------------------|
G|----------------------------------------------------------------------|
D|-------------------------------9-12----------------------------10-----|
A|-\12-10-9-12-10~---------9-10-------10~----10-9----9-10--10-12--------|
E|-------------------10-12------------------------12--------------------|


Verse 1: 2x

G                    C 
You are not a god created by human hands
G                     C
You are not a god dependent on any mortal man
G             D       Em        C            G
You are not a god in need of anything we can give
         D           G       D       C
By Your plan that's just the way it is...


Chorus:
             G
You are God Alone
                   D
From before time began
                    Em
You were are Your Throne
             C                         
You are God Alone
           G
And right now
                      D
In the good times and bad
                 Em
You are on Your Throne
                 C
And You are God Alone



Riff

e|--------------------------------------------------------------------------|
B|--------------------------------------------------------------------------|
G|--------------------------------------------------------------------------|
D|-------9---12--------------------9---12-------------------9---12----------|
A|-10-12---------10--12~-----10-12---------12--10~----10-12---------12--10~-|
E|--------------------------------------------------------------------------|


e|----------------------------|
B|----------------------------|
G|----------------------------|
D|----------------------------|
A|--10-9----9-10--10-12-10~---|
E|-------12-------------------|


Verse 2:
G                          C
You're the only God whose Power none can contend
G                           C
You're the only God whose name and Praise will never end
G               D           Em         C               G    
You're the only God whose worthy of everything we can give
         D          G       D       C
You are God that's just the way it is


Chorus:
             G
You are God Alone
                   D
From before time began
                    Em
You were are Your Throne
             C                         
You are God Alone
           G
And right now
                      D
In the good times and bad
                 Em
You are on Your Throne
                 C
And You are God Alone


Bridge: 
                           G                                D                
You're unchangeable (Unchangeable) You're Unshakable (Unshakable)
                     G                                        C                   
Unstoppable (Unstoppable) That's who you are (That's who you are)
                           G                                D                
You're unchangeable (Unchangeable) You're Unshakable (Unshakable)
                     G                                        C                   
Unstoppable (Unstoppable) That's who you are (That's who you are)



                    ***Key Chang

Deeper Deeper Tabs by One Ok Rock

 One OK Rock:Deeper Deeper

Guitar
Tuning: Standard


Main-Riff

E||--------------------------|--------------------------|
B||--------------------------|--------------------------|
G||--------------------------|--------------------------|
D||--2--2--------------------|--------------------------|
A||--2--2--------------------|--------------------------|
E||--0--0--7--0--3--0--L--3--|--5--3--L--3--5--3--L--5--| x 4


Verse 1

|-------|-------|--------------------------|--------------------------|
|-------|-------|--------------------------|--------------------------|
|-------|-------|--------------------------|--------------------------|
|-------|-------|--2--2--------------------|--------------------------|
|-------|-------|--2--2--------------------|--------------------------|
|-------|-------|--0--0--7--0--3--0--L--3--|--5--3--L--3--5--3--L--5--| x 2


--------------------------|--------------------------|
--------------------------|--------------------------|
--4--4--4--6--L--L--6--7--|--L--L--7--6--L--L--6--L--|
--------------------------|--------------------------|
--------------------------|--------------------------|
--------------------------|--------------------------|


--------------------------|--------------------------|
--------------------------|--------------------------|
--------------------------|--------------------------|
--2--2--------------------|--------------------------|
--2--2--------------------|--------------------------|
--0--0--7--0--3--0--L--3--|--5--3--L--3--5--3--L--5--|


--------------------------|--------------------------|
--------------------------|--------------------------|
--4--4--4--6--L--L--6--7--|--L--L--7--6--L--L--6--L--|
--------------------------|--------------------------|
--------------------------|--------------------------|
--------------------------|--------------------------|


--------------------------|--------------------------|
--------------------------|--------------------------|
--------------------------|--------------------------|
--2--2--------------------|--------------------------|
--2--2--------------------|--2--2--2--2--2--L--L--L--|
--0--0--7--0--3--0--L--3--|--0--0--0--0--0--L--L--L--|


Chorus x4

--------------------------|--------------------------|
--------------------------|--------------------------|
--5--5--5--5--5--5--5--5--|--4--4--4--4--7--7--7--7--|
--5--5--5--5--5--5--5--5--|--4--4--4--4--7--7--7--7--|
--3--3--3--3--3--3--3--3--|--2--2--2--2--5--5--5--5--|
--------------------------|--------------------------|

--------------------------|--------------------------|
--------------------------|--------------------------|
--------------------------|--------------------------|
--2--2--2--2--2--2--2--2--|--5--5--5--5--5--5--5--5--|
--2--2--2--2--2--2--2--2--|--5--5--5--5--5--5--5--5--|
--0--0--0--0--0--0--0--0--|--3--3--3--3--3--3--3--3--|

Main-Riff x 2

--------------------------|--------------------------|
--------------------------|--------------------------|
--------------------------|--------------------------|
--2--2--------------------|--------------------------|
--2--2--------------------|--------------------------|
--0--0--7--0--3--0--L--3--|--5--3--L--3--5--3--L--5--|


Verse 2

|-------|-------|--------------------------|--------------------------|
|-------|-------|--------------------------|--------------------------|
|-------|-------|--------------------------|--------------------------|
|-------|-------|--2--2--------------------|--------------------------|
|-------|-------|--2--2--------------------|--------------------------|
|-------|-------|--0--0--7--0--3--0--L--3--|--5--3--L--3--5--3--L--5--| x 2


--------------------------|--------------------------|
--------------------------|--------------------------|
--4--4--4--6--L--L--6--7--|--L--L--7--6--L--L--6--L--|
--------------------------|--------------------------|
--------------

Gator Blood Tabs by Mark Knopfler V2

 -------------------------------------------------------------------------------
                             Gator Blood - Mark Knopfler
-------------------------------------------------------------------------------
:Alex


I didn't include every little thing, but it should be easy to figure out with the parts 
I've put here.

Tuning:Open G - DBDBGD - Capo 3rd fret

First time
D|----3---5---------------------3---5----------------|
B|-/3---3-------3/1----------/3---3------------------|
G|-------------------3-0----------------3P0-------0--|
D|------------------------------------------3P0H3----|
G|---------------------------------------------------|
D|---------------------------------------------------|

Second time
D|----3---5---------------------3---5----------------|
B|-/3---3-------3/1----------/3---3------------------|
G|-------------------3-0----------------3P0----------|
D|------------------------------------------3P0-0----|
G|---------------------------------------------------|
D|---------------------------------------------------|
   Riff1        Riff2                   Riff 3

  Rhythm Parts
D|---------------------0-----------------------------------------------------|
B|----0--0--0----------0-----------------------------------------------------|
G|----0--3--0----------0-----------------------------------------------------|
D|----0--0--0----------------------------------------------------------------|
G|-0--------------------------------0-000000-3br0-0-0------------------------|
D|---------------------------------------------------------------------------|
   Pre-verse       During verse     "Swallowed all the
   Repeat it       Before fills      fishes in the frying pan"

      ^ ^ ^ v ^ v          C
D|----3-3-3-3-3-3------------------------------------------------------------|
B|-/3-3-3-3-3-3-3----------1-------------------------------------------------|
G|-------------------------0----------------------------3~~~~~~~~~~~---------|
D|-------------------------2-------------------------------------------------|
G|-------------------------3-------------------------------------------------|
D|---------------------------------------------------------------------------|
  "Blood...."          "Gator Blood"                  "I got gator blood"
                        Play is a couple of times      After this go into the pre-verse

Hammer on a skillet(Riff 1) up they come(Riff 2)
Showman whanging(Riff 1) on a ballyhoo drum(Riff 3)
Watch out(Riff 1), people I'm a greedy man(Riff 2)
Swallowed all the fishes in the frying pan
Blood, gator blood, I got gator blood

Chicken on a hotplate gobbledegook
Come on up, honey and take a look
Mighty fine weather this time of year
Shake a tail feather you chicken you hear
Blood, gator blood, I got gator blood
(Do intro part two here)

Chicken on a hotplate it's gonna dance
Gonna lose these chickens my first chance
Don't you know I'm a flim flam man
A chicken show it ain't worth a damn
Gator blood, I got gator blood

Solo(Played with a slide)
D|--13/15-15-15-15-15-15-15-X3-----------------------------------------------|
B|---------------------------------------------------------------------------|
G|--------------------------------THEN------------3BSLOW---------------------|
D|---------------------------------------------------------------------------|
G|---------------------------------------------------------------------------|
D|---------------------------------------------------------------------------|

I got a country boy, he's a bird who sings
Butter paddle, buck 'n wing
Kid's got a winner bonafide hit
I'm gonna have my dinner on a spit
Blood, gator blood, I got gator blood

Hoopla, humbug, howdy-do
Gonna make you into chicken stew
Alligator in the mud
Don't you know I got gator blood
Gator blood, I got gator blood
(Solo again)

Never lend a dollar to your good friend Tom

Love To Get Used Tabs by Matt Pond Pa

 Song: Love To Get Used
Artist: Matt Pond
 The Lives Inside the Lines in Your Hand
: Patrick Gamache

This song is a little funny, and I still am having some trouble getting one
guitar to sound like the studio version because of how many guitar layers 
there are, plus the synthesizer. With that warning, unless you are right on 
time, the song will sound pretty funny. That said, there are several decent 
videos out there of this song, and that is how I got the chords. 

Capo 5

Em  |022000|
G   |320003|
D   |xx0232|
C   |x32010|
C5  |x355xx|
G5  |355xxx|
Am7 |x02010|


Main Riff

  Em      G       D       G       Em      G       C       
e|--------------------------------------------------------------------------------|
B|--0h3p0-----0-----0h3p0-----0-----0h3p0-----0----1--p--0--0------1----0--1--0---|
G|--------0-2-------------0-2-------------0-2-------------------------------------|
D|--------------------------------------------------------------------------------|
A|--------------------------------------------------------------------------------|
E|--------------------------------------------------------------------------------|
For the verses, you play the above chord progression with exactly the same rhythm.


Fill for lead guitar during verses
e|------0--------|
B|--3-------3----|
G|4---4-------4--|
D|---------------|
A|---------------|
E|---------------|

Chorus 

C5               G5
   Black bird,     from the blue
G5            C5
   I give my love to get used
C5             G5
   High hawks    come true
G5                C5
   You give your love to get used

Note: when Matt plays this live, he uses a D chord in the refrain instead of 
that second G, but honestly I think it sounds better with just the G5 and C5 
chords. 

Bridge

C                   D
   Let's hang on to abandon
G                       C
   Let's hope we lose control
Em                  D
   To be out in the open, baby
G                    C
   And let go of the ropes
C*
   Nothing into nothing

*There is a weird mix of an Em chord and a C chord here, depending on which
version you listen to. 

+++

Good luck, folks! 

Also, if anyone can figure out what that weird electric guitar is doing in 
the studio version, let me know. It has been driving me crazy trying to 
figure that out. 

Conquistador Tabs by 30 Seconds To Mars V5

 Tuning HALF STEP UP, then DROP D
(you can also use a CAPO 1)
D# A# D# G# B# E#

Tabbed by Galva94

Structure:
1.  main riff 2x
2.  verse 2x (piano)
3.  interlude part 1 2x
4.  verse 2x (piano and synth)
5.  interlude part 1 2x
6.  interlude part 2 1x
7.  main riff 8x
8.  interlude part 1 3x
9.  interlude part 2 1x (only second part)
10. main riff (only first part)

A) MAIN RIFF 
e|----------------------------|---------------------------|
B|----------------------------|---------------------------|
G|----------------------------|---------------------------|
D|----------------------------|---------------------------|
A|----------------------------|---------------------------|
D|-0---12-0-12--0-10-12-17-15-|-0---12-0-12--0-10-12-3~---|

B) VERSE

Piano
e|------------------|------------------|
B|------------------|------------------|
G|------------------|------------------|
D|-0---3---8--------|-0---3---8---5----|
A|------------------|------------------|
D|-0---3---8--------|-0---3---8---5----|

Synth (verse 2 only)
e|----------------------------|----------------------------|
B|----------------------------|----------------------------|
G|----------------------------|----------------------------|
D|-12-14-15-12----------------|----------------------------|
A|----------------------------|----------------------------|
D|----------------------------|----------------------------|


C) INTERLUDE 

part 1 (2x)
e|------------------------------|---------------------------|
B|------------------------------|---------------------------|
G|------------------------------|---------------------------|
D|------------------------------|---------------------------|
A|------------------------------|---------------------------|
D|-12/0--0--0--0-12/0--0--0--0--|-12/0--0--0--0--3--3--5--5-|

part2
e|-------------------------|------------------------|
B|-------------------------|------------------------|
G|-------------------------|------------------------|
D|-8--8--8--8--8--8--10~---|-5--5--5--5--5--5--3~---|
A|-8--8--8--8--8--8--10~---|-5--5--5--5--5--5--3~---|
D|-8--8--8--8--8--8--10~---|-5--5--5--5--5--5--3~---|

e|-------------------------|------------------------|
B|-------------------------|------------------------|
G|-------------------------|------------------------|
D|-8--8--8--8--8--8--10~---|-5--5--5--5--3~----2~---|
A|-8--8--8--8--8--8--10~---|-5--5--5--5--3~----2~---|
D|-8--8--8--8--8--8--10~---|-5--5--5--5--3~----2~---|