Tag: ring

Golden Ring chords – George Jones Vsion 2

 Golden Ring George Jones

 D 
In a pawn shop in Chicago on a sunny sumer day
    A7 D           
A couple gazes at the wedding rings there on display

She smiles and nods her head as he says Honey that's for you.
                              A7 D 
It's not much but it's the  best that I can do.

         D 
Golden Ring with one tiny little stone
           A7 D 
Waiting there for someone to take it home

By itself it's just a cold metalic thing
                       A7 D      
Only love can make a golden wedding ring.

       D 
In a little wedding chapel later on that after noon
     A7 D   
An old up right piano plays that old familiar tune

Tears roll down her cheeks and happy thoughts run through her head
                          A7 D 
As he whispers low with this ring I thee wed.

         D 
Golden Ring with one tiny little stone
          A7 D 
Shining ring now at last it's found a home

By itself it's just a cold metalic thing
                       A7 D      
Only love can make a golden wedding ring.

      D 
In a small two room apartment as they fight their final round
     A7 D  
He says You won't admit it but I know you're leavin' town.

She says One thing's for certain I don't love you anymore.
                              A7 D 
And throws down the ring as  she walks out the door.

         D 
Golden Ring with one tiny little stone
       A7 D  
Cast aside like the love that's dead and gone.

By itself it's just a cold metalic thing
                       A7 D      
Only love can make a golden wedding ring.
 D 
In a pawn shop in Chicago on a sunny sumer day
    A7 G D           
A couple gazes at the wedding rings there on display Golden Ring

Ring Of Keys chords – Fun Home

 E A 
Someone just came in the door.
 E A 
Like no one I ever saw before.
 E A 
I feel...
 E A 
I feel...

 E A 
I don't know where you came from.
 E A 
I wish I did I feel so dumb.
 Abm 
I feel...

     A E 
Your swagger and your bearing
         F#m Abm E 
and the just right clothes you're wearing
     A E 
Your short hair and your dungarees
          A 
And your lace up boots.

          G D 
And your keys oh
      G D 
Your ring of keys.

 E A 
I thought it was s'pposed to be wrong
 E A 
But you seem okay with being strong
 E A 
I want...to...
 E A 
You're so...

 E A 
It's probably conceited to say,
 E A 
But I think we're alike in a certain way
 Abm 
I...um...

     A E 
Your swagger and your bearing
         F#m Abm E 
and the just right clothes you're wearing
     A E 
Your short hair and your dungarees
          A 
And your lace up boots.

          G D 
And your keys oh
      G D 
Your ring of keys.

 E B E 
Do you feel my heart saying hi?
 E B 
In this whole luncheonette
 E B F#m E 
Why am I the only one who see you're beautiful?

N.C.
No, I mean

 F#m B 
Handsome!

 E A A E 
Your swagger and your bearing
         F#m Abm E 
and the just right clothes you're wearing
     A E 
Your short hair and your dungarees
          A 
And your lace up boots.

          G D 
And your keys oh
      G D 
Your ring of keys.

   E A 
I know you
   E A 
I know you
   E A 
I know you

 E

Amenamy chords – Purity Ring

 You can also alternatively play these as power chords.

VERSE

 D#m F# 
Somberly, somberly linger, lie longer-ly
 C# G#m 
Grateful our cold memories bide
         D#m 
For the plentiful times that,
          F#             
That her eagerly death had,
     C# G#m 
had counter intuitive underlined
 D#m  
Clean my sparkling teeth
 F# 
Brush down my sparkling sides
 C# 
Thy nervous blood will become undone
        G#m 
From impedious, pounding ideas

CHORUS

 D#m F# 
Some shattering find for this candor to die
 C# G#m 
Plug up your wormholes and give them, to feeders and spirits be freer
 D#m F# 
Some shattering find for this candor to die
 C# G#m 
Plug up your wormholes and give them, to feeders and spirits be freer

VERSE
               D#m                      
And freer and broil and toil and foil dies
 F# C# G#m         
Scallop the breastbone, roll and toll and fold the long winter in it
 D#m F# 
Think not what the season will become
         C#  
Breathe fruitfully at the garden glen,
           G#m 
That grew masterfully over your withering son

BRIDGE
 D#m 
Beat open bed bugs,
 F# 
Stand when you do it
 C# 
Beat open bed bugs,
 C# 
Stand when you do it

CHORUS

 D#m F# 
Some shattering find for this candor to die
 C# G#m 
Plug up your wormholes and give them, to feeders and spirits be freer
 D#m F# 
Some shattering find for this candor to die
 C# G#m 
Plug up your wormholes and give them, to feeders and spirits be freer and freer and freer and..

Push Pull chords – Purity Ring

 [Verse 1]
 F 
You were young and you'd stare
                      Am 
With a reverence unimpaired

There was an echo far and faint
                   Dm 
Beneath the air remained

You were young and you'd stare
                             C/E 
Where my limbs hung far and fair

Make a ladder of what folds

And climb up in the air

[Chorus]
 F Am 
You push and you pull and you tell yourself no
                                                Dm 
It's like when you lie down, the veins grow in slow

You push and you pull
                 C/E 
But you'd never know

I crept up in you and I

Wouldn't let go

[Verse 2]
 F 
There was no light and I swear
                         Am 
I could see your raring fear

I heard the plains moaning back
                             Bb 
I saw the thunder roll o'er black

There was no light and I swear
                     C/E 
We sat still in our fear

Make a ladder of what folds

And climb up in the air

[Chorus]
 F Am 
You push and you pull and you tell yourself no
                                                Dm 
It's like when you lie down, the veins grow in slow

You push and you pull
                 C/E 
But you'd never know

I crept up in you and I

Wouldn't let go

[Bridge]
 F 
I carve out the spaces and I
 F 
Imparted graces and I
 F 
I couldn't shake it and I


[Verse 3]
 F 
I build a constellation lair
                               Am 
Out of the moles that hovered there
   
A fever billowed with the wind
                         Dm 
And obeyed the sky therein
 
I build a constellation lair
                                    C/E 
Out of the moles that hovered there

Make a pardon of what knows

And climb up in the air

[Chorus]
 F Am 
You push and you pull and you tell yourself no
                                                Dm 
It's like when you lie down, the veins grow in slow

You push and you pull
                 C/E 
But you'd never know

I crept up in you and I

Wouldn't let go
 F Am 
You push and you pull and you tell yourself no
                                                Dm 
It's like when you lie down, the veins grow in slow

You push and you pull
                 C 
But you'd never know

I crept up in you and I
                  F 
Wouldn't let go 

Ring Around The Moon chords – Melanie Safka

 Melanie Safka - Ring Around The Moon
 
 
## NOTE: These chords and key are based on the recording ##
##       Unplugged And Solo Powered       ##
 
 
CAPO: 4th Fret
 
 
 G D G               
Who will draw a ring around the moon
          C D                     
Who will draw a line from star to star
          G D G                    
Who will sing a penny's worth of song
    C D G                       
To tell them how in love we are
 
 
                     D G                   
I will draw a ring around the moon
        C D                            
I will draw a line from star to star
        G D G                    
I will sing a penny's worth of song
    C D G     
To tell them how in love we are

Ring My Bell chords – Saori Hayami

 I made this tab using chords i found in the internet and made little changes but still it doesnt sound perfect.
You will need to listen to the song to get timing and such right.
PS: I play the F's in the chorus and many of the C's on the 8th Fret. I hope it helps!



[Intro]

 F C 
I can hear my heart bell
 A# Am 
dou shita tte iu no
         A# C 
mune no beru ga naru

intro    C# B A#m A G 



[Verse]

 C# G# F# F# G# 
   hajimari wa ano toki datta (ringin' ringin')
 C# G# F# F# G# 
   kimi ga me no mae ni totsuzen (ringin' ringin')
 C# G# F# A#m 
   arawareta no wa umareru mae kara
     F# G# A#m G# F# G# 
kimerareteta nda ne kitto sou da yo

      A#m D#m F# G# 
negai ya yabou ya  kuusou ga
     A#m D#m F# G# 
shiranai reberu e doa o tataite
       F# G# B C# 
habataku kagi to mirai o kureru (with your wings)



[Chorus]

 F C 
I can hear my heart bell
 A# Am 
tomerarenai yo
   Gm Am A# C 
tenshi ga narashiteru daisuki no aizu da yo ne
 F C 
can you hear my heart bell?
 A# Am 
dou shita tte iu no
       Gm Am A# C 
kiita koto ga nai mune no beru ga naru

     Dm C A# C F 
soredemo mada kimi wa nannimo shiranai keredo

 D# Dm A# C C#m B A# Am G 



[Verse]

 C# G# F# F# G# 
   mune nnaka sodateru nda (ringin' ringin') 
 C# G# F# F# G# 
   sekkachi na watashi no yume (ringin' ringin') 
 C# G# F# A#m 
   nan no maebure mo naku katte ni 
      F# G# A#m G# F# G# 
mata kimi no  koto dake kangaeteiru

     A#m D#m F# G# 
imasugu ureshii kao ga mitai
   A#m D#m F# G# 
daiji na dareka ga warau no naraba 
       F# G# F# G# B C# 
tabun nandemo dekiru shi nandemo yareru to omou
  D E 
(with your smile)



[Chorus]

 F C 
I can hear my heart bell 
 A# Am 
tomerarenai yo
  Gm Am A# C 
sora kara konna kimochi shukufuku shiteru mitai 
 F C 
can you hear my heart bell? 
 A# Am 
dou shita tte iu no 
       Gm Am A# C      
kiita koto ga nai mune no beru ga naru

     Dm C A# C F 
ima nara hora kimi wa nanika o mitsukeru kamo ne


Solo/interlude    D# F Gm Am                                 



[Bridge]

 A# 
   suki ni naru tte koto wa (someone says)
 F 
   sekaijuu kara I love you (I love you)
 Gm Am Dm C 
iwareteru mitai na  mirakuru (it must b

This Ring Tabs by Tech N9ne

 -------------------------------------------------------------------------------
                                                    This Ring - Tech N9ne
-------------------------------------------------------------------------------
 Anghellic
Year: 2001
: Istarii
 istariimusic@hotmail.com

Tuning: Standard


  Fig. 1  (piano melody)                      End Fig. 1

e|-----------------------------------------------------|
B|-----------------------------------------------------|
G|-----------------------------------------------------|
D|-----------------------------------------------------|
A|-------0-----0-2-0---0-0-2-0---------0-2---0---------|
E|-2------42-4----------2------2-----4-------------020-|



  Fig. 2                                            End Fig. 2

  (These are one's and two's)
e|------------------------------------------------------------|
B|------------------------------------------------------------|
G|-------1111111111111111---111----111-----11----1111--11-----|
D|---------------------------------------22-------------------|
A|------------------------------------------------------------|
E|------------------------------------------------------------|


Fig. 1 = Piano melody - plays during chorus sections
Fig. 2 = Fast guitar during second half of verses

How Nothing Feels Tabs by Promise Ring

 -----------------------------------------------------------------------------
                             HOW NOTHING FEELS - The Promise Ring
-----------------------------------------------------------------------------
So this is pretty basic, its just a simple melody over the same chords of Nothing Feels 
Good. The melody is on a piano (and I think the right hand plays the chords softly as 
well) and the chords are played on an acoustic.

Tuning: Standard
                                      x2
e|-7-8-|-------------12-10----------7-8-|-------------8--7------------14--|
B|-----|-10-----------------------------|-10------------------------------|
G|-----|--------------------------------|---------------------------------|
D|-----|--------------------------------|---------------------------------|
A|-----|--------------------------------|---------------------------------|
E|-----|--------------------------------|---------------------------------|
 |                                                                        |
e|-----|--------------------------------|---------------------------------|
B|-----|--------------------------------|---------------------------------|
G|-4-4-|-2---2---2---2-2-4---4---4---4-4|-2---2---2---2-2-4---4---4---4-4-|
D|-5-5-|-3---3---3---3-3-5---5---5---5-5|-3---3---3---3-3-5---5---5---5-5-|
A|-5-5-|-3---3---3---3-3-5---5---5---5-5|-3---3---3---3-3-5---5---5---5-5-|
E|-3-3-|-1---1---1---1-1-3---3---3---3-3|-1---1---1---1-1-3---3---3---3-3-|


e|-15-----------------------------|-----(7)(8)---8--7-----------7-8-|
B|--------------------------------|-10------------------------------|
G|--------------------------------|---------------------------------|Fade...
D|--------------------------------|---------------------------------|
A|--------------------------------|---------------------------------|
E|--------------------------------|---------------------------------|
 |                                    *(ghost notes, not harmonics) |
 |                                                                  |
e|--------------------------------|---------------------------------|
B|--------------------------------|---------------------------------|
G|-2---2---2---2-2-4---4---4---4-4|-2---2---2---2-2-4---4---4---4-4-|
D|-3---3---3---3-3-5---5---5---5-5|-3---3---3---3-3-5---5---5---5-5-|
A|-3---3---3---3-3-5---5---5---5-5|-3---3---3---3-3-5---5---5---5-5-|
E|-1---1---1---1-1-3---3---3---3-3|-1---1---1---1-1-3---3---3---3-3-|

Anne You Will Sing Tabs by Promise Ring

 -----------------------------------------------------------------------------
                           ANNE YOU WILL SING - The Promise Ring
-----------------------------------------------------------------------------
Well this is my favorite song by TPR so I thought I'd try to tab it out. 

Tuning: Standard


Beginning:
e|---------------------------|
B|-4------------4------------|
G|-----4-------------4-------|
D|---------------------------|
A|---------------------------|
E|---------------------------|

Intro/Verse:
e|------------------------------------------------------------------------|
B|------------------------------------------------------------------------|
G|-9-99-99-99-99-99-8-89-911-119-99-99-8-88-88-88-88-888-88-88-88-88-88---|
D|-9-99-99-99-99-99-9-99-9-9-9-9-99-99-x-xx-xx-xx-xx-xxx-xx-xx-xx-xx-xx---|
A|-7-77-77-77-77-77-6-66-6-6-6-6-66-66-6-66-66-66-66-666-66-66-66-66-66---|
E|-------------------------------------4-44-44-44-44-445-55-55-55-55-55---|
 |                                                                        |
e|------------------------------------------------------------------------|
B|------------------------------------------------------------------------|
G|-9-99-99-99-99-998-88-88-88-88-8813-1313-1313-1313-1313-1311111111111111|
D|-9-99-99-99-99-999-99-99-99-99-99x--x-x--x-x--x-x--x-x--x-x-xx-xx-xx-xx-|
A|-7-77-77-77-77-776-66-66-66-66-6611-1111-1111-1111-1111-119-99-99-99-99-|
E|------------------------------------------------------------------------|

Bridge:           x1                 x3
e|------------------|------------------|
B|------------------|------------------|
G|-888-9999-99-9999-|-888-9999-99-9999-|
D|-xxx-777x-xx-xxxx-|-xxx-777x-xx-xxxx-|
A|-666-0007-77-7777-|-666-0007-77-7777-|
E|--------0-00-0000-|--------0-00-0000-|
 |                                     |
e|------------------|------------------|
B|------------------|------------------|
G|------------------|-444-222----------|
D|--------2-22-2222-|-444-2222-22-2222-|
A|--------2-22-2222-|-222-0002-22-2222-|
E|--------0-00-0000-|--------0-00-0000-|

Interlude:
G|---------------------------------------------------------|
D|---------------------------------------------------------|BASS
A|---0-4----0-4----0-4----0-4----0-7----0-7----0-7----0-7--|
E|-0------0------0------0------0------0------0------0------|
 |                                                         |
e|--------------------------------------------------7------|
B|-----------------------------------------------9---------|GTR I
G|---------------------------------9-----------------------|
D|---------------------------------------------------------|
A|-----7---------------------------7-----------------------|
E|-0-0-0-----------------------0-0-------------------------|
 |                                                         |
e|---------------------------------------------------------|
B|---------------------------------------------------------|GTR II
G|---------------------------------------------------------|
D|---------------------------------------------------------|
A|-----4---------------------------7----------------7/9-9--|
E|-0-0-0-----------------------0-0-0----------------0---0--|


G|---------------------------------------------------------|
D|---------------------------------------------------------|BASS
A|---0-4----0-4----0-4----0-4----0-7----0-7----0-7----0-7--|
E|-0------0------0------0------0------0------0------0------|
 |                                                         |
e|-------------------7-------------------------------------|
B|-----9--------------------9------------------------------|GTR I
G|------------6--------------------6------6/4---4/6--------|
D|---------------------------------------------------------|
A|---------------------------------------------------------|
E|---------------------------------------------------------|
 |                 

Together Well Ring In The New Year chords – Motion City Soundtrack V4

 First chord chart I've put out in a while.
Capo on 1 to match the key of the song (you can move the capo anywhere else to 
work with your voice)

This song sounds real good fingerpicked to these chords in my opinion.
Here's a transcription of the pattern I usually use for the verse (and fingerings for chords). 
This pattern just repeats until you get to the Emin before the chorus.

    G Gmaj7/B 
|--------3--------3----------|--------2--------2----------|
|-----3--------3--------3----|-----3--------3--------3----|
|--0--------0--------0-------|--0--------0--------0-------|
|----------------------------|----------------------------|
|----------------------------|--2-------------------------|
|--3-------------------------|----------------------------|

   Cadd9 G Cadd9 G 
----------------------------|----------------------------||
--------3--------3----------|--------3--------3----------||
-----0--------0--------0----|-----0--------0--------0----||
----------------------------|----------------------------||
--3-------------------------|--3-------------------------||
-----------3--------3-------|-----------3--------3-------||


 G Gmaj7/B 
   This must be it.
                   Cadd9 G Cadd9 G 
   Welcome to the new year.
 G Gmaj7/B 
   The drinks were consumed,
                     Cadd9 G Cadd9 G 
   the plants were destroyed, and the hors d'oeuvres dismantled.
 G Gmaj7/B 
   I'm not smiling
     Cadd9 G Cadd9 G 
   behind this fake veneer.
          G Gmaj7/B 
   I am often interrupted
                   Cadd9 G Cadd9 G 
   or completely ignored,
        Emin Fmaj7 
   but most of all I'm bored.


 G Cadd9 D          
   I'm trying to find out
   Cadd9 G Cadd9 Fmaj7 
   if my words have any meaning.
 G Cadd9 D Cadd9 
   Lackluster and full of contempt
             G Cadd9 Fmaj7 
   when it always ends the same.
    Emin F 
   Why won't she listen to me?


 G Gmaj7/B 
   Why did I come?
                   Cadd9 G Cadd9 G 
   Oh, why did I come here?
 G Gmaj7/B 
   These humans all suck.
                  Cadd9 G Cadd9 G 
   I'd rather be home feeling violent and lonely.
 G Gmaj7/B Cadd9 G Cadd9 G     
   I'm not trying to sound so insincere,
            G Gmaj7/B 
   but the postcard that's taped to the freezer reads:
                   Cadd9 G Cadd9 G 
   "Wish you were here."
          Emin Fmaj7 
   How I wish I could disappear.


 G Cadd9 D    
   I'm trying to find out
   Cadd9 G Cadd9 Fmaj7 
   if my words have any meaning.
 G Cadd9 D Cadd9 
   Lackluster and full of contempt
            G Cadd9 Fmaj7 
   when it always ends the same.

 G Cadd9 D Cadd9  
   Heads up Damage Control,
              G Cadd9 Fmaj7 
   ther

This Golden Ring chords – Fortunes

 This Golden Ring:The Fortunes.
#15 in UK and #82 on BB Hot 100
on DECCA Records in 1966.

INTRO:  A# D# 

#1.
 D# A# 
This golden ring's gonna buy me a place in my 
        D# 
baby's heart.
             A# 
This golden ring's gonna make quite sure that 
          D# D#7 
we never part.

CHORUS:
         G# D# G# 
It's so funny what a ring can do..make a girl 
           C7 F F7 
just like you, take a ride downtown..searching 
               A# 
for a wedding gown.
 A# D# G# D# 
So, I got a ring for my baby and I'm thinkin' 
                G# F 
very soon that maybe, that girl will be mine.
 D# F D# 
Gonna have an angel divine and everything is gonna 
    F F7 
be fine, so fine.

BRIDGE:
 Dm G Dm C 
This golden ring is all I have to give to you.
 F G F D# 
But given time and love I'll make your dreams come true.

#2.
 A# D# 
I've been saving all my money..I've been working hard, girl,

only with you in mind.
 A# A#7 D# 
We got more than money..we got a love that's gonna last us..

CHORUS:
         G# D# G# 
It's so funny what a ring can do..make a girl 
           C7 F F7 
just like you, take a ride downtown..searching 
               A# 
for a wedding gown.
 A# D# G# D# 
So, I got a ring for my baby and I'm thinkin' 
                G# F 
very soon that maybe, that girl will be mine.
 D# F D# 
Gonna have an angel divine and everything is gonna 
    F F7 Dm   ( A# )
be fine, so fine..fine....(Fade.)


A sixties smash from Kraziekhat.

E Texas Ave Tabs by Promise Ring V2

 Title: East Texas Avenue
 The Horse latitudes - originally from split 7" w/ TITR
: Kris Johansen - krisjohansen@usa.net


Introduction

e-----------------0--------|
B-----------3--------------|
G-----0----------------0---|:
D--------------------------|:
A---3----3-----3-----3-----|
E--------------------------|


Verse chords (x2 of each phrase)

e-------------|--------------|
B-------------|--------------|
G---5-5--5--5-|---9--9--9-9--|
D---5-5--5--5-|---9--9--9-9--|
A---3-3--3--3-|---7--7--7-7--|
E---3-3--3--3-|---7--7--7-7--|

Chorus

"I hang my head in Hartford"

e--------------------------------|--------------------------------------|
B--------------------------------|--0-0-0-------------------------------|
G---12--12--11-11----9--9--7--7--|--0-0-0-------------------------------|
D--------------------------------|--2-2-2---etc-------------------------|
A---10--10--9--9-----7--7--5--5--|--3-3-3-------------------------------|
E--------------------------------|--------------------------------------|

Breakdown - just pick around these notes (yeah im lazy too bad :) play
it near the bridge to get a more trebly sound. 

e------------0----------------------------------------------------------|
B---------12------------------------------------------------------------|
G-------0---------------------------------------------------------------|
D-----9-----------------------------------------------------------------|
A--10-------------------------------------------------------------------|
E-----------------------------------------------------------------------|

B Is For Bethlehem Tabs by Promise Ring

 Title: B is for Bethlehem
 Nothing Feels Good
: Kris Johansen - krisjohansen@guitarsrule.com


Intro

e------|
B------|
G------|
D--10--| x 32
A--10--|
E--8---|

Verse chords
  
    C   C/B    A#      A      A# 
e-------------------------------------------------|
B-------------------------------------------------|
G-------------------------------------------------|
D---10--------------------------------------------|
A---10--10------8------7-----8--------------------|
E---8---7-------6------5-----6--------------------|


alternately you might like to play these chords in
this position cause you can strike more open strings
and i think its sounds more like the record.
  
    C   C/B    A#      A      A# 
e-------------------------------------------------|
B-------------------------------------------------|
G---5---5-----3-------2------3--------------------|
D---5---5-----3-------2------3--------------------|
A---3---2-----1-------0------1--------------------|
E-------------------------------------------------|


C           C/B            A#
Your neck is craned a lazy quarter

         A        A#        C     
from the distance down your back


Other bit of verse (i dont know what else to call it)

   G5    F5   C5
e-------------------------|
B-------------------------|
G-------------5-----------|
D--5----3-----5-----------|
A--5----3-----3-----------|
E--3----1-----------------|

G5                         F5        C5
broke from the sins of our shoulders

G5                                      F5    C5
run its motors to waters to struggle and end

*then back to verse chords (play through 2 times)
*then to other bit of verse (play through x2)

Then the pre-chorus like below:

G
Im dying to try to stop the wind

F
leave the leaves left and leave to be

G                               F
hallowed by my name and my name ours its hours to be where

Chorus
 
   C5  A5    G5  A#5
e----------------------------------|
B----------------------------------|
G--5---------------3---------------|
D--5----7-----5----3---------------|
A--3----7-----5----1---------------|
E-------5-----3--------------------|


C5                       A5         
B is for Bethlehem where Jesus was a fisherman

          G5                                  A#5
I know he starts and finishes men I dont know why

C5                    A5         
Jesus was a fisherman fishing men from the devils hands

        G5                                  A#5
and the devil was made red to live a damned life

*then back to verse chords (play through 4 times with a stop on the A#5 2nd time)

*then to other bit of verse (play through x2) "my bends they bend my anchor.."

Then Play chorus


Then play:

break (see rhythm below)
  
   1x                     2.5 times (so on the 3rd time just play the G
                                      then go to the chorus through to finish).
e----------------------|------------3-3-3-3-3-3------------------|
B----------------------|------------3-3-3-3-3-3------------------|
G--0-0-0-0-0-0-0-0-0-0-|------------0-0-0-0-0-0------------------|
D--2-2-2-2-2-2-2-2-2-0-|-0-0-0-0-0--0-0-0-0-0-0------------------|
A--0-0-0-0-0-0-0-0-0-2-|-x-x-x-x-x--2-2-2-2-2-2------------------|
E----------------------|-3-3-3-3-3-------------------------------|
   D D D U D D D D U D   D D D U D

Arms And Danger Tabs by Promise Ring

 Title: Arms and Danger
 Very Emergency
: Kris Johansen - krisjohansen@guitarsrule.com

Intro/Chorus

e----------------------------------------------------------------------|
B----------------------------------------------------------------------|
G---5-------7---10-----------------------------------------------------|
D---5---7---7---10-----------------------------------------------------|
A---3---7---5---8------------------------------------------------------|
E-------5--------------------------------------------------------------|


Verse

e----------------------------------------------------------------------|
B----------------------------------------------------------------------|
G------------------10--10-10-10-10-------------------------------------|
D---10--10-10-10---10--10-10-10-10-------------------------------------|
A---10--10-10-10---8---8--8--8--8--------------------------------------|
E---8---8--8--8--------------------------------------------------------|


"Hours before we go.."

e----------------------------------------------------------------------|
B----------------------------------------------------------------------|
G--3----5---10---------------------------------------------------------|
D--3----5---10----10--10--8-8-8-8--------------------------------------|
A--1----3---8-----10--10--8-8-8-8--------------------------------------|
E-----------------8---8---6-6-6-6--------------------------------------|

"still we'll not know"

e---------------------------------------------|------------------------|
B---------------------------------------------|------------------------|
G---------------------------------------------|------------------------|
D--10-10-10-10--10-10-10-10--7-7-7-7--5-5-5-5-|--3---5-----10----------|
A---8--8--8--8--7--7--7--7---5-5-5-5--3-3-3-3-|--1---3-----8-----------|
E---------------------------------------------|------------------------|

Lead under chorus

e----------------------------------------------------------------------|
B----------------------------------------------------------------------|
G----------------------------------------------------------------------|
D----------------------------------------------------------------------|
A--3---5/7--5--5/7-5--5/10---------------------------------------------| x2
E----------------------------------------------------------------------|

e----------------------------------------------------------------------|
B----------------------------------------------------------------------|
G------------7/9-7-----9-----------------------------------------------| x1
D----5/9--5------------------------------------------------------------|
A--3-------------------------------------------------------------------|
E----------------------------------------------------------------------|


No one could be happier for you.



Perfect Lines Tabs by Promise Ring V2

 Title: Perfect Lines
 Nothing Feels Good
: Kris Johansen - krisjohansen@guitarsrule.com


Main Part

"I traced all of the letters.."
 
e----------------------------------------------------------------------|
B-------5-3------------------------------------------------------------|
G--5-5--5-5---4-5-5--5-5-5-/-12--12-12--12--10--10--10--10--9--9--9----|
D--5-5--5-5---5-5-5--5-5-5-/-12--12-12--12--10--10--10--10--10-10-10---|
A--3-3--3-3---3-3-3--3-3-3-/-10--10-10--10--8---8---8---8---8--8--8----|
E--3-3--3-3---3-3-3--3-3-3-/-10--10-10--10--8---8---8---8---8--8--8----|

~= let ring.
/=slide.

break before verse

e------|---------------------------------------------------------------|
B------|-13------------------------------------------------------------|
G--5~/-|-----/12~--12-/-10-------5~------------------------------------|
D------|-10------------------------------------------------------------|
A--3~/-|-----/10~--10-/-8--------3~------------------------------------|
E------|---------------------------------------------------------------|

verse - Guitar 1 

e----------------------------------------------------------------------|
B----------------------------------------------------------------------|
G------0----0----0----0-------0--0--0--0-----0----0----0----0----------|
D---10---10---10---10---10--9--9--9--9----12---12---12---12------------|
A----------------------------------------------------------------------|
E----------------------------------------------------------------------|

e----------------------------------------------------------------------|
B----------------------------------------------------------------------|
G------0---0---0---0-------0----0----0----0------0----0----0----0------|
D---9---9---9---9-------14---14---14---14-----10---10---10---10--------|
A----------------------------------------------------------------------|
E----------------------------------------------------------------------|

e----------------------------------------------------------------------|
B----------------------------------------------------------------------|
G-----0----0----0----0----0---0---0----0-------------------------------|
D--12---12---12---12----9---9---9---10---------------------------------| 
A----------------------------------------------------------------------|
E----------------------------------------------------------------------|

verse - Guitar 2

e---------------|
B---------------|
G--5~--4~--7~-4~| repeat x4
D---------------|
A---------------|
E---------------|


Bridge (well...kind of)

"lets talk about the sound of the phone outside of texaco..."
* = play 16x

    *  *  *  *  palm mute first time then rawk out :)
e-------------------|
B-------------------|
G---------5---------|
D---5--5--5--5------|
A---3--5--7--5------|
E------------3------|

Order:

main
break
verse
main
break
verse
bridge
main

American Girl Tabs by Promise Ring V3

 Title: American Girl (V.02)
 Boys + Girls EP
: Kris Johansen - krisjohansen@guitarsrule.com


    Am7 
e--------------------------------------------------------|
B-----------1--------------------------------------------|
G---------0----0-h-2-------------------------------------| x4 
D----5/7-------------------------------------------------|
A--------------------------------------------------------|
E--------------------------------------------------------|

or if you're playing alone you may prefer this even though above
is more like what's in the song.

   Am7
e------------------------------------------------------|
B--------1---------------------------------------------|
G------0----0h2----------------------------------------| x4
D----2-------------------------------------------------|
A--0---------------------------------------------------|
E------------------------------------------------------|

 Fmaj7/9
e-----------0-----------------------------------------|
B--------1----1---------------------------------------|
G-----0---------0-------------------------------------| x4
D--3--------------------------------------------------|
A-----------------------------------------------------|
E-----------------------------------------------------|

Just keep alternating between those two patterns for ages then at around
1:19 seconds through the song you get to change slightly - 

     (X2)              (x2) (I think the bass is playing 
                           a G here and its confusing me)
e---------0------|--------0--------|
B-------1---1----|------1---1------|
G----0--------0--|----0-------0----|
D--2-------------|--0-----------0--|
A----------------|-----------------|
E----------------|-----------------|

then back to the other pattern for a while until 1:53 through the 
song when you go back to the above for the same amount. Then just
play the Fmaj7/9 pattern over and over and over and over and over.

Lead (comes in with the drums)

e----------------------------------------------------------------------|
B--------3-------------6------------3---------6------------------------|
G----------------------------------------------------------------------|
D--3----------5/7----------7----3-------5/7-----------7/---------2-----|
A----------------------------------------------------------------------|
E----------------------------------------------------------------------|

e----------------------------------------------------------------------|
B----------------------------------------------------------------------|
G----------------------------------------------------------------------|
D--2p0--0--0h2-2----2p0------------------------------------------------|
A-----------------------------3---5----3-----5-------------------------|
E----------------------------------------------------------------------|

as 1st guitar plays fmaj7/9 at end, lead guitar does this in time
with the bass.

e----------------------------------------------------------------------|
B----------------------------------------------------------------------|
G----------------------------------------------------------------------|
D-----------------------------------2~---------------------------------|
A--3--3-----3--3------3---3-------3------------------------------------|
E----------------------------------------------------------------------|

New Jersey Shore Tabs by Promise Ring

 Title: New Jersey Shore
 Very Emergency
: Kris Johansen - krisjohansen@guitarsrule.com


Intro


e----------------------|
B----------------------|
G--6-6---6-6-6---6-6-6-|
D--7-7-x-7-7-7-x-7-7-7-|
A--7-7-x-7-7-7-x-7-7-7-|
E--5-5-x-5-5-5-x-5-5-5-|

Chorus

e-------------------------------------------------------------------|
B-------------------------------------------------------------------|
G--6-6---6-6-6---6-6-6------7-7-x-7-7-7-x-7-/-9-9-x-9-9-9-----------|
D--7-7-x-7-7-7-x-7-7-7-x----7-7-x-7-7-7-x-7-/-9-9-x-9-9-9-----------|
A--7-7-x-7-7-7-x-7-7-7-x----5-5-x-5-5-5-x-5-/-7-7-x-7-7-7-----------|
E--5-5-x-5-5-5-x-5-5-5-x--------------------------------------------|

Guitar 2 with tremolo effect

e----------------------------------------------------------------------|
B----------------------------------------------------------------------|
G------------------------------------------------9-9--9-------9--------|
D------------------------------------------------9-9--9-------9--------|
A-----------------------------5-5----5-5-5--5----7-7--7--7/9--7--------|
E--5-5-5-5-5--5-5-5-----5-7-9------------------------------------------|

e----------------------------------------------------------------------|
B----------------------------------------------------------------------|
G----------------------------------------------------------------------|
D----------------------------------------------------------------------|
A-----------------------------5-5----5-5-5--5----7bend-hard!-----------|
E--5-5-5-5-5--5-5-5-----5-7-9------------------------------------------|
                                                 (maybe a foot pedal)
                                                
      
Verse chords

   A  D  E   Bm
e-----------------------------------------------------------------------|
B------------7----------------------------------------------------------|
G-----7--9---9----------------------------------------------------------|
D--7--7--9---9----------------------------------------------------------|
A--7--5--7---7----------------------------------------------------------|
E--5---------7----------------------------------------------------------|

A
Bored walking on the boardwalk
           D                   E 
New Jersey Shore, If I come to New York
                    A   
Can i sleep on your floor?
                                        D 
And living out of suitcase on the motel floor

             E                   Bm
and running up tabs at the corner store
        D 
at the corner store

(the guitar part under the second half of each verse is much the same
as the chorus. Just less of each note, NOFX.)

Lead into chorus

e----------------------------------------------------------------------|
B----------------------------------------------------------------------|
G----------------------------------------------------------------------|
D---7-----7-9-9/11-9-12-11---------------------------------------------|
A------5---------------------------------------------------------------|
E----------------------------------------------------------------------|

Lead
                                          last time through go back to:
e---------------------------------------|-------------------------------|
B---------------------------------------|-------------------------------|
G--------9/11-9-------------------------|-------------------------------|
D---7-7---------9-11-9--7-7-7-7-9-7-6---|--7----------------------------|
A---------------------------------------|--------5----------------------|
E---------------------------------------|-------------------------------|

Bm
and theres
    D
not anymore.

D---7--9--9/11-9-------------------------|

American Girl Tabs by Promise Ring V2

 Title: American Girl (V.01)
 Electric Pink EP
: Kris Johansen - krisjohansen@guitarsrule.com


Verse Progression

   D   A  Bm7   D   A

e--2-------2----2-------------------------------------------------------|
B--3---2---3----3---2---------------------------------------------------|
G--2---2---2----2---2---------------------------------------------------|
D--0---2---4----0---2---------------------------------------------------|
A------0---2--------0---------------------------------------------------|
E----------2------------------------------------------------------------|

D        A                         Bm                      D
American Girl, Your young country world, sleeps like promising

             A       D etc etc 
and sleep is promising.

   A  G   D   A 

e-----3---2------------------------------------------------------------|
B--2--3---3---2--------------------------------------------------------|
G--2--0---2---2--------------------------------------------------------|
D--2--0---0---2--------------------------------------------------------|
A--0--2-------0--------------------------------------------------------|
E-----3----------------------------------------------------------------|

A              G               D                       A   
  And time is tight, but not tonight and thats right i know. 

Lead line with some icky effect on it. The first time
you play through once. The second time the lead occurs
you play three times of the first and then one of the second.


e----------------------------------------------------------------------|
B----------------------------------------------------------------------|
G----------------------------------------------------------------------|
D----------------------------------------------------------------------|
A---5-5--5-7-5--7/9-7-5-7-0--2---4--5--7/9-7--5-7-5--------------------|
E----------------------------------------------------------------------|


e----------------------------------------------------------------------|
B----------------------------------------------------------------------|
G----------------------------------------------------------------------|
D----------------------------------------------------------------------|
A---5-5--5-7-5--7/9-7-5-7-0--2---0---4--5-7---7/9-7--------------------|
E----------------------------------------------------------------------|

Make Me A Mix Tape Tabs by Promise Ring

 Title: Make Me a Mix Tape
 Electric Pink EP
: Kris Johansen - krisjohansen@guitarsrule.com
Tuning: EGCGCE

I made a mix tape for someone and stuck this on first. Seemed kinda
appropriate.

Verse and pre chorus Chords
  
   C     F      G    Bb    I think with the C chord there's something like this
                                        going
e-----|-----|-----|----|---------------------------------------------------|
C-----|-----|-----|----|---------------------------------------------------|
G--0--|--0--|--0--|--0-|-----2-0-0--0-0-0----------------------------------|
C--0--|--0--|--0--|--0-|-----0-0-0--0-0-0----------------------------------|
G--5--|--2--|--4--|--3-|-----5-5-5--5-5-5----------------------------------|
E-----|--1--|--3--|----|---------------------------------------------------|


Verse

C                                            F
You reminded me that I would never be twenty two
 
C                                                F       G 
Listening to the alarm, waking up south of north avenue

C                                                              F
My skin is gonna wonder, my skin is gonna wonder what Im doing Now

C                                                          F        G
My skin is gonna wonder, my skin is gonna wonder what I am doing Now


Pre-Chorus palm mute

C
So write me a letter and tell me where you are

                         F            G                 Bb      
how to get there and how long that it takes to tape me some songs


Chorus - order play 1,2,1,3 as below.

Make me a mix tape something old and something new

put something on that reminds me of you.

Make me a mix tape that makes me yours.

  
     1                  2                        3
e-------------|-------------------------|------------------------------|
C-------------|-------------------------|------------------------------|
G---9--10--7--|--9--10--12--14--15--17--|--9--10-----------------------|
C-------------|-------------------------|---------14-------------------|
G---9--10--7--|--9--10--12--14--15--17--|--9--10--12-------------------|
E-------------|-------------------------|------------------------------|

bridge - this is rather weird and very cool. I'm not 100% on it though.


e--0-0-0--0-0-0-0--0-0-0-0-0-0-0--0-0-0-0-0-0-0------------------------|
C--0-0-0--0-0-0-0--0-0-0-0-0-0-0--0-0-0-0-0-0-0--0-0-0-0-0-0-0-0-------|
G--0-0-0--0-0-0-0--0-0-0-0-0-0-0--0-0-0-0-0-0-0--0-0-0-0-0-0-0-0-------|
C--0-0-0--0-0-0-0--0-0-0-0-0-0-0--0-0-0-0-0-0-0--0-0-0-0-0-0-0-0-------|
G--3-3-3--5-5-5-5--0-0-0-5-5-5-5--0-0-0-4-4-4-4--5-5-5-5-5-5-5-5-------|
E------------------3-3-3-4-4-4-4--1-1-1-3-3-3-3------------------------|

Quiet Chorus

e----------------------------------------------------------------------|
C----------------------------------------------------------------------|
G--------0----------------0---------------0--------------0-------------|
C----0-----0---0-----0------0----0----0-----0---0----0-----0---0-------|
G--9---9-----9----10---10-----10----7---7-----7----7---7-----7---------|
E----------------------------------------------------------------------|

12 Sweaters Red Tabs by Promise Ring

 Title: 12 Sweaters Red
 Ground Rule Double Compilation
: Kris Johansen - krisjohansen@guitarsrule.com

Ok, I would just like to make it clear that I'm not going to tab every
single note in this song, that would take ages and while I always
enjoy tabbing stuff out, that would be just plain tedious. And now
on with the show.

Intro Guitar 1 00:00

e-------5-----5-----5-----5-----5--------------------------------------|
B-----7-----7-----7-----7-----7---7-------7-----7-----7-----7-----7----|
G---0-----0-----0-----0-----0-----------7-----7-----7-----7-----7---7--|
D-------------------------------------0-----0-----0-----0-----0--------|
A----------------------------------------------------------------------|
E----------------------------------------------------------------------|

Intro Guitar 2 00:12
                                     from 2nd time through
e----------------------9---------|--------------------------------------|
B-----10----10----10-----10----10|-10/14/12-----------------------------|
G---0-----0-----0----0-------0---|--------------------------------------|
D--------------------------------|--------------------------------------|
A--------------------------------|--------------------------------------|
E--------------------------------|--------------------------------------|

Change at 01:50 mark             
                                 02:00
e-----------------------------|-----------------------------------------|
B--------0------5-----0-------|-----------------------------------------|
G----5-----5------5-----5-----|---6--4---2------------------------------|
D--5---5-----5------5-----5---|------0---0------------------------------|
A-----------------------------|---5--x---x------------------------------|
E-----------------------------|------5---3------------------------------|

Then go back to playing the intro at 02:12

Then the bit you play at the 2 minute mark

Then the heavier bit.

Guitar 1 chords

e----------------------------------------------------------------------|
B----------------------------------------------------------------------|
G--2---6--4--2---------------------------------------------------------|
D--0------0--0---------------------------------------------------------|
A------5--x--x---------------------------------------------------------|
E--2------5--3---------------------------------------------------------|

Guitar 2 at 02:52

strum 32x
             3:06
e-------|---------------------------------------------------------------|
B--10---|---------------------10/14/12--14-------10---------------------|
G---9---|--/14--12---11---11----------------------9--etc----------------|
D-------|---------------------------------------------------------------|
A--(9)--|----------------------------------------(9)--------------------|
E-------|---------------------------------------------------------------|

Next part at 03:26
e----------------------------------------------------------------------|
B---12---15---12---12--------------------------------------------------|
G---12---12---14---12-----0----0---0-----------------------------------|
D---12---12---12---12-----10---10--10----------------------------------|
A-------------------------10---10--10----------------------------------|
E-------------------------8----8---8-----------------------------------|

Then back to the regular heavier bit and play to the end.

Very end
e----------------------------------------------------------------------|
B----------------------------------------------------------------------|
G----------------------------------------------------------------------|
D--0-0-0-0-0-0-0-0-----------------------------------------------------|
A--x-x-x-x-x-x-x-x-----------------------------------------------------|
E--2-2-2-2-2-2-2-3-----------------------------------------------------|