Tag: rolling

Rolling In The Deep guitar chords by Adele

[Intro]
C5

[Verse 1]
C5               G5
There's a fire starting in my heart,
Bb5                                G5                 Bb5
Reaching a fever pitch and it's bringing me out the dark
C5              G5             
Finally, I can see you crystal clear.
Bb5                           G5                 Bb5  
Go ahead and sell me out and I'll lay your ship bare.

C5                     G5  
See how I leave, with every piece of you
Bb5                       G5                  Bb5
Don't underestimate the things that I will do.
C5                G5  
There's a fire starting in my heart,
Bb5                                G5                   Bb5
Reaching a fever pitch and it's bringing me out the dark

[Pre-Chorus 1]
Ab               Bb                      Gm   
    The scars of your love, remind me of us.
               Ab                           Ab   
They keep me thinking that we almost had it all
             Bb                        Gm      
The scars of your love, they leave me breathless
              G
I can't help feeling...

[Chorus]
                     Cm                   Bb
We could have had it all... (I wish you, never had met me)...
                Ab                                           
Rolling in the Deep (Tears are gonna fall, rolling in the deep)
      Bb                                Cm           Bb
Your had my heart... (I wish you)... Inside of your hand (Never had met me)
           Ab                                                                   Bb
And you played it... (Tears are gonna fall)... To the beat (Rolling in the deep)

[Verse 2]
C5               G5
Baby I have no story to be told,
Bb5                                G5                  Bb5
But I've heard one of you and I'm gonna make your head burn.
C5                   G5
Think of me in the depths of your despair.
Bb5                          G5                  Bb5
Making a home down there, as mine sure won't be shared.

[Pre-Chorus 1]
Ab               Bb                      Gm   
    The scars of your love, remind me of us.
               Ab                           Ab   
They keep me thinking that we almost had it all
             Bb                        Gm      
The scars of your love, they leave me breathless
              G
I can't help feeling...

[Chorus]
                     Cm                   Bb
We could have had it all... (I wish you, never had met me)...
                Ab                                           
Rolling in the Deep (Tears are gonna fall, rolling in the deep)
      Bb                                Cm           Bb
Your had my heart... (I wish you)... Inside of your hand (Never had met me)
           Ab                                                                   Bb
And you played it... (Tears are gonna fall)... To the beat (Rolling in the deep)
                      Ab       Bb
We could have had it all 
                 Cm       Bb
Rolling in the Deep 
                   Ab                                    
Your had my heart Inside of your hand 
         Bb 
And you played it To the beat 

[Verse 3]
N.C.
Throw yourself through ever open door (Whoa)
N.C.
Count your blessings to find what look for (Whoa-uh)
C5
Turn my sorrow into treasured gold (Whoa)
C5
And pay me back in kind- You reap just what you sow.

[Pre-Chorus 2]
Cm             Bb                        Ab 
(I wish you...)    We could have had it all (Tears are gonna fall... Rolling in the deep) 
    Bb                Cm                       Bb
We could have had it all yeah ( I wish you... never had met me)
   Ab
It all. (Tears are gonna fall)                            
It all, It all (Rolling in the deep)

[Chorus]
                     Cm                   Bb
We could have had it all... (I wish you, never had met me)...
                Ab
Rolling in the Deep (Tears are gonna fall, rolling in the deep)
      Bb                                Cm           Bb 
Your had my heart... (I wish you)... Inside of your hand (Never had met me)
           Ab                                                                   Bb
And you played it... (Tears are gonna fall)... To the beat (Rolling in the deep) 
                    Cm 
We could have had it all... (I wish you, never had met me)...
                Ab   
Rolling in the Deep (Tears are gonna fall, rolling in the deep)
      Bb                                Cm           Bb
Your had my heart... (I wish you)... Inside of your hand (Never had met me)
Ab           
But you played it. You played it. You played it.
      Bb              Cm
You played it to the beat.

Back Street Girl Tabs – The Rolling Stones Vsion 1

 BACK STREET GIRL

As recorded by The Rolling Stones
(From the 1967 Album FLOWERS)

Words and Music by Mick Jagger & Keith Richards

 Slowhand


Gtr I (D G C F A D) - 'Keith Richards - Acoustic Guitar (1 step down)'


   Intro
    Q=154
    E/A        D/A        A
   3/4
    Gtr I (Ac. Gtr. / 1 step down: D G C F A D) 
    Q  Q  Q    Q  Q  Q    E E E E E E   Q  Q  Q
||-----4-----|----2-----|-------5-----|----5--5--|
||o-------5--|-------3--|-----2---3-5-|----2--2--|
||-----------|----------|---2---------|----2--2--|
||-----------|----------|-------------|----2--2--|
||o-0--------|-0--------|-0-----------|-0--------|
||-----------|----------|-------------|----------|


  E           D           A
  E E Q  Q    E E Q  Q    E E E E E E   Q  E E Q
|-----0-----|-----------|---------5---|----5-5-5---||
|---0----0--|-----3-----|-----2-----3-|-2--2-2-2--o||
|-----------|---2----2--|-------------|----2-2-2---||
|-----------|-0---------|---2---2-----|----2-2-2---||
|-----------|-----------|-0-----------|-----------o||
|-0---------|-----------|-------------|------------||


   1st - 4th Verses
    $
    $$
    E/A        D/A        A
    Q  Q  Q    Q  Q  Q    E E E E E E   Q  Q  Q
||-----4-----|----2-----|-------5-----|----5--5--|
||o-------5--|-------3--|-----2---3-5-|----2--2--|
||-----------|----------|---2---------|----2--2--|
||-----------|----------|-------------|----2--2--|
||o-0--------|-0--------|-0-----------|-0--------|
||-----------|----------|-------------|----------|


  E           D           A
  E E Q  Q    E E Q  Q    E E E E E E   Q  E E Q
|-----0-----|-----------|---------5---|----5-5-5--|
|---0----0--|-----3-----|-----2-----3-|-2--2-2-2--|
|-----------|---2----2--|-------------|----2-2-2--|
|-----------|-0---------|---2---2-----|----2-2-2--|
|-----------|-----------|-0-----------|-----------|
|-0---------|-----------|-------------|-----------|


  E/A        D/A        A
  Q  Q  Q    Q  Q  Q    E E E E E E   Q  Q  Q
|----4-----|----2-----|-------5-----|----5--5--|
|-------5--|-------3--|-----2---3-5-|----2--2--|
|----------|----------|---2---------|----2--2--|
|----------|----------|-------------|----2--2--|
|-0--------|-0--------|-0-----------|-0--------|
|----------|----------|-------------|----------|


  E           D           A
  E E Q  Q    E E Q  Q    E E E E E E   Q  E E Q
|-----0-----|-----------|---------5---|----5-5-5--||
|---0----0--|-----3-----|-----2-----3-|-2--2-2-2--||
|-----------|---2----2--|-------------|----2-2-2--||
|-----------|-0---------|---2---2-----|----2-2-2--||
|-----------|-----------|-0-----------|-----------||
|-0---------|-----------|-------------|-----------||


 Pre-Chorus
  Bm            F#7/A#        Bm
  E E E E E E   E E E E E E   E E E E E E   E E E E E E
|-------2-----|-------0-----|-------2-----|-------2-----|
|-----3---3---|-----2---2---|---------3---|---------3---|
|---4-------4-|---3-------3-|-----4-----4-|-----4-----4-|
|-------------|-------------|---4---------|---4---------|
|-2-----------|-1-----------|-2-----------|-2-----------|
|-------------|-------------|-------------|-------------|


  C#m           D             A
  E E E E E E   E E E E E E   E E E E E E
|-------4-----|-------2-----|-------------|
|---------5---|-----3---3---|-------2-----|
|-----6-----6-|---2-------2-|-----2---2---|
|---6---------|-0-----------|---2-------2-|
|-4-----------|-------------|-0-----------|
|-------------|-------------|-------------|


  E
  Q  E E E E   Q  E E E E   Q  E E E E   Q  E E E E
|----0-0-0-0-|----0-0-0-0-|----0-0-0-0-|----0-0-0-0-||
|----0-0-0-0-|----0-0-0-0-|----0-0-0-0-|----0-0-0-0-||
|----1-1-1-1-|----1-1-1-1-|----1-1-1-1-|----1-1-1-1-||
|----2-2-2-2-|----2-2-2-2-|----2-2-2-2-|----2-2-2-2-||
|----2-2-2-2-|----2-2-2-2-|----2-2-2-2-|----2-2-2-2-||
|-0--0-0-0-0-|-0--0-0-0-0-|-0--0-0-0-0-|-0--0-0-0-0-||


 Chorus
  E/A        D/A        A
  Q  Q  Q    Q  Q  Q    E E E E E E   Q  Q  Q
|----4-----|----2-----|-------5-----|----5--5--|
|-------5--|------

Sympathy For The Devil Live chords – Rolling Stones

 Capo II


 D C         
Please allow me to introduce myself
       G D 
I'm a man of wealth and taste
 D C 
I've been around for a long, long year
 G D 
Stole many a man's soul and faith

 D C 
And I was 'round when Jesus Christ
         G D 
Had his moment of doubt and pain
                     C 
Made damn sure that Pilate
            G D 
Washed his hands and sealed his fate

 A                   
Pleased to meet you
                   D 
Hope you guess my name
            A 
But what's puzzling you
        G D 
Is the nature of my game

 D C 
I stuck around St. Petersburg
        G D 
When I saw it was a time for a change
                         C 
Killed the Czar and his ministers
     G D 
Anastasia screamed in vain

   D 
I rode a tank 
        C 
Held a general's rank
          G           
When the Blitzkrieg raged
         D 
And the bodies stank

 A                   
Pleased to meet you
                   D 
Hope you guess my name
            A 
But what's puzzling you
        G D 
Is the nature of my game
   D 
I watched with glee
            C 
While your kings and queens
            G 
Fought for ten decades
         D 
For the Gods they made

   D 
I shouted out
                 C 
"Who killed the Kennedys?"
      G 
When after all
        D 
It was you and me

 D C 
Let me please introduce myself
       G D 
I'm a man of wealth and taste
                      C 
And I laid traps for troubadours
         G D 
Who get killed before they reached Bombay 

 A                   
Pleased to meet you
                   D 
Hope you guess my name
            A 
But what's puzzling you
        G D 
Is the nature of my game
oh yeah, get down, baby

solo (play D C G D in background)

 A                   
Pleased to meet you
                   D 
Hope you guess my name
            A 
But what's puzzling you
        G D 
Is the nature of my game

         D C 
Just as every cop is a criminal
     G D 
And all the sinners saints

As heads is tails
              C 
Just call me Lucifer
               G D 
'Cause I'm in need of some restraint

 D 
So if you meet me
           C 
Have some courtesy
           G D 
Have some sympathy, and some taste
                              C 
Use all your well-learned politesse
         G D 
Or I'll lay your soul to waste, um yeah

 A                   
Pleased to meet you
                   D 
Hope you guess my name
            A 
But what's puzzling you
        G D 
Is the nature of my game
um baby, get down

(Continue D C G D in background to end)

Woo, who
Oh yeah, get on down
Oh yeah
Oh yeah!
Tell me baby, what's my name
Tell me honey, baby guess my name
Tell me baby, what's my name
I tell you one time, you're to blame
Ooo, who
Ooo, who
Ooo, who
Ooo, who, who
Ooo, who, who
Ooo, who, who
Ooo, who, who
Oh, yeah
What's my name
Tell me, baby, what's my name
Tell me, sweetie, what's my name
Ooo, who, who
Ooo, who, who
Ooo, who, who
Ooo, who, who
Ooo, who, who
O

Rolling Down Tabs – Freedom Fry

 -------------------------------------------------------------------------------
                             Rolling Down - Freedom Fry
-------------------------------------------------------------------------------
Tabbed by: A. Cross
Soft Acoustic Fingerpicking

Tuning: Standard. To play along with recording capo at 3rd Fret.

Intro:
e|---------------------------------------------------------------------------|
B|---0---------0--------0--------0---------0---------0--------0-------0------|
G|--------0---------0--------0--------0---------0---------0-------0--------0-|
D|-----0---------0--------0--------0---------0---------0--------0-------0----|
A|-7---------5--------7--------5---------7---------5--------7-------5--------|
E|---------------------------------------------------------------------------|

Verse:
"The world's yours when you turn eighteen and you feel like..."
e|---------------------------------------------------------------------------|
B|---0---------0--------0--------0---------0---------0--------0-------0------|
G|--------0---------0--------0--------0---------0---------0-------0--------0-|
D|-----0---------0--------0--------0---------0---------0--------0-------0----|
A|-7---------5--------7--------5---------7---------5--------7-------5--------|
E|---------------------------------------------------------------------------|

"Which way will you go? Which way will you go?"
e|---------------------------------------------------------------------------|
B|---1---------1--------1--------1---------1---------1--------1-------1------|
G|--------0---------0--------2--------2---------0----------0-------2-------2-|
D|-----2-------- 0--------2--------2---------2---------0--------2-------2----|
A|-3--------2---------0--------0---------3---------2--------0-------0--------|
E|---------------------------------------------------------------------------|

Chorus:
"'cause it's a great big world and you know it"
e|---------------------------------------------------------------------------|
B|---0--------0---------0--------0---------0---------0-----------------------|
G|--------0--------0---------0--------0---------0----------0-----------------|
D|-----0--------0---------2--------2---------2---------2---------------------|
A|--------------------3--------3---------3--------3--------------------------|
E|-3--------3----------------------------------------------------------------|

"it's a great big world and you know it"
e|---------------------------------------------------------------------------|
B|---0--------0---------0--------0-------------------------------------------|
G|------- 0--------0---------0--------0--------------------------------------|
D|-----0--------2---------2--------2-----------------------------------------|
A|--------------------3--------3---------------------------------------------|
E|-3--------0----------------------------------------------------------------|

"it's a great big world and you're rolling down"
e|---------------------------------------------------------------------------|
B|---0--------0---------2--------2---------0-------0-------0--------0--------|
G|------- 0--------0---------0--------0---------0-------0--------0--------0--|
D|-----0--------2---------2--------2---------2-------2-------2--------0------|
A|--------------------0--------0---------------------------------------------|
E|-3--------0----------------------------0-------0-------0-------0-----------|

Bridge:
"Our day has come around, we're out of this town, out of this town"
e|---2--------2--------------------------------------------------------------|
B|--------3--------3---0--------0-------1--------0-------1-------0-----------|
G|-----2--------2----------0--------0--------0-------0-------0-------0-------|
D|-0--------0-----------0--------0--------2--------0-------2-------0---------|
A|------------------------------------3----------------3---------------------|
E|-------------------3--------3----------------3---------------3----

Sweet Virginia Tabs by Rolling Stones V4

 Sweet Virginia (Mick Jagger/Keith Richards)
The Rolling Stones
Exile on Main St. - 1972
 Leonardo Barcellos

Capo 2nd fret

INTRO
         G           D             G
e|-------3-3-3-------2-2-2---------3-3-3---------3-3-3-|
B|-----0-0-0-0-------3-3-3---------0-0-0---------0-0-0-|
G|---0---0-0-0-----0-2-2-2---2---0-0-0-0---0---0-0-0-0-|
D|-0-----0-0-0-0h2---0-0-0---------0-0-0---------0-0-0-|
A|-------2-2-2-----------------3---2-2-2-3---2---2-2-2-|
E|-------3-3-3-------------2-------3-3-3---------3-3-3-|

2x

           C             A7            G   
e|---------0-0-0---------0-0-0---------3-3-3-3-|
B|---------1-1-1---------2-2-2---------0-0-0-0-|
G|---0---0-0-0-0---0---0-0-0-0---0---0-0-0-0-0-|
D|---------2-2-2---------2-2-2---------0-0-0-0-|
A|-0---2---3-3-3-3---2---0-0-0---------2-2-2-2-|
E|-----------------------------0---2---3-3-3-3-|


           C             A7            G
e|---------0-0-0---------0-0-0---------3-3-|
B|---------1-1-1---------2-2-2---------0-0-|
G|---0---0-0-0-0---0---0-0-0-0---0---0-0-0-|
D|---------2-2-2---------2-2-2---------0-0-|
A|-0---2---3-3-3-3---2---0-0-0---------2-2-|
E|-----------------------------0---2---3-3-|

             C               G               D           G       
e|-------------0-0-------------3-3-------------2-2---------3-3---------3-3---------|
B|-------------1-1-------------0-0-------------3-3---------0-0---------0-0---------|
G|-----0-----0-0-0-----0-----0-0-0-----0-----0-2-2---2---0-0-0---0---0-0-0---0---0-|
D|-------0h2---2-2-0h2---0h2---0-0-------0h2---0-0---------0-0---------0-0---------|
A|-0h2---------3-3-------------2-2-0h2-----------------0---2-2-3---2---2-2-0---2---|
E|-----------------------------3-3-----------------0-------3-3---------3-3---------|

C                      A7          G
Wading through the waste stormy winter
C                    A7                 G
And there's not a friend to help you through
C                      A7               G     C 
Trying to stop the waves behind your eyeballs
G              D                        G
Drop your reds drop your greens and blues

C                     A7        G
Thank you for your wine, California
C                    A7               G
Thank you for your sweet and bitter fruits
C                    A7          G     C
Yes, I've got the desert in my toenail
G            D              G   
And hid the speed inside my shoe

C                       A7          G
But come on come on down Sweet Virginia
C                  A7         G
Come on honey child I beg of you
C                   A7           G     C
Come on come on down you got it in you
G                  D                   G
Got to scrape that shit right off your shoes


Sax solo: C A7 G C A7 G C A7 G C G D G


C                       A7          G
But come on come on down Sweet Virginia
C                  A7         G
Come on honey child I beg of you
C                   A7           G     C
Come on come on down you got it in you
G                  D                   G
Got to scrape that shit right off your shoes

One more time!

C                       A7          G
But come on come on down Sweet Virginia
C                  A7         G
Come on honey child I beg of you
C                   A7           G     C
Come on come on down you got it in you
G                  D                   G
Got to scrape that shit right off your shoes



Tab by Leonardo Barcellos
leonardobarcellosmarques@hotmail.com

Beast Of Burden chords – Rolling Stones V4

 Intro: ( E B/D# - C#m A ) x4

 E B/D# -  C#m A E B /D# - C#m A 
I'll never be your beast of burden, my back is broad but it's a hurting 
 E B/D# - C#m A E B - C#m A 
All I want is for you to make love to me
 E G#m7 A E G#m7 A 
I'll never be your beast of burden, I've walked for miles, my feet are hurting
 E G#m7 A E G#m7 A 
All I want is for you to make love to me 

       A E/G# A E/G# B 
Am I hard enough? am I rough enough? am I rich enough? I'm not too blind to see 

 E B/D# -  A E G#m7 A 
I'll never be your beast of burden, so let's go home, and draw the curtains 
 E G#m7 A E G#m7 A 
Music on the radio, come on baby make sweet love to me 

       A E/G# A E/G# B 
Am I hard enough? am I rough enough? am I rich enough? I'm not too blind to see 

 E B/D# -  C#m A     ( E B /D#- C#m A ) x3
Oh, pretty, pretty, pretty, pretty, pretty, girls
            E B/D# C#m A 
You're a pretty, pretty, pretty, pretty, pretty, girl 
  E G#m7 A 
Pretty, pretty, such a pretty, pretty, pretty girl 
  E G#m7 A E G#m7 A 
Come on baby please, please, please 
                        E B/D# - C#m A E B /D#- C#m A 
I'll tell ya, you can put me out,       on the street, put me out, with no shoes on my feet 
       E B/D# - C#m A E B /D#- C#m A 
But, put me out, put me out, put me out of misery 
        E B/D# - A E G#m7 A 
Yeah, all your sickness I can suck it up, throw it all at me, I can shrug it off 
  E G#m7 A E G#m7 A 
There's one thing baby, that I don't understand, you keep on telling me I ain't your kind of man 
           E B/D# - C#m A E B /D#- C#m A 
Ain't I rough enough? ooh,   ain't I tough enough?
           E B/D# - C#m A E B /D#- C#m A 
Ain't I rich enough in love enough?

 E G#m7 A E G#m7 A 
I'll never be your beast of burden, I'll never be your beast of burden 
 E G#m7 A E G#m7 A 
Never, never, never, never, never, never, never be  
 E B/D#  -   C#m A E B/D# - C#m A 
I'll never be your beast of burden, I've walked for miles, my feet are hurting
 E B/D# - C#m A E B /D#- C#m A 
All I want is for you to ma