Tag: Romance

Every Snowflake Is Different chords – My Chemical Romance

 *comment down if there are any corrections or questions about the chords/lyrics*

Intro: 
 D A Bm A G Bb D A D Dbm D Bm 
Every snowflake's different just like you
                         A G 
(Every snowflake's different just like you)
              A D 
I'll sing about it if you ask me to
    C 
(Ask me to)

 G A 
Different shapes and different sizes
        D Dbm Bm A     
Like every star up in the sky
 G A D A 
Every snowflake's different just like you

 Bm 
Green fur
 F# 
Blue skin
 G A 
  And the very silly way you grin

 Bm 
Big fangs
 F# 
Small chin
 G 
  There are so many special things about you
 A 
Things about you
                      G 
Things about you    

 D A       
Every snowflake's different just like
 Bm A 
Every snowflake's different just like
 G Bb D A 
Every snowflake's different just like you

 D A 
Different shape and different size
       Bm A 
Like every star up in the sky
  G Gm Bb D 
Every snowflake's different just like you

-End-

Sad Romance solo Tabs – Ji Pyeongkeyon

 ***This version is for novices to play.

E|-0----0----0----0----|-3-----0----0----|-0----0----3-----|-0----0----0----0----|
B|-1--------------1----|-------1---------|------1----------|-1--------------1----|
G|-2--------------0----|-------2---------|------0----------|-2--------------0----|
D|-2--------------2----|-------3---------|------2----------|-2--------------2----|
A|-0--------------0----|-------0---------|------0----------|-0--------------0----|
E|----------------3----|-------1---------|------3----------|----------------3----|


E|-3-----0---------|-----------------|-----7---8----7---8---10--7---|-7-------------------------|
B|-------1----3----|-1----0----------|-10---------------------------|-----8--------8---10---8---|
G|-------2---------|-----------0-----|------------------------------|----------9----------------|
D|-------3---------|-----------------|------------------------------|---------------------------|
A|-------0---------|-----------------|---------0--------------------|------------------8--------|
E|-----------------|------0----------|--------------------------0---|-0-------------------------|


E|---------------7---8--|-7---8---10--7-----------|-----5-----5---|-----7---8----7---8---10--7-|
B|-----------10---------|------------------8------|-8---6-----6---|-10-------------------------|
G|-10---9---------------|-----------------------9-|-----------7---|----------------------------|
D|----------------------|-------------------------|-----0-----0---|----------------------------|
A|-------------------0--|-------------------------|---------------|---------0------------------|
E|------8---------------|-------------0-----------|---------------|--------------------------0-|


E|-7-------------------------|---------------7---8----|-7---8---10--12--7-------5----|
B|-----8--------8---10---8---|------8----10-----------|---------------------8---6----|
G|----------9----------------|-10---------------------|------------------------------|
D|---------------------------|------------------------|-------------------------0----|
A|------------------8--------|-------------------0----|------------------------------|
E|-0-------------------------|------8-----------------|-------------0----------------|


E|-5---5-----8---7-------|--------------8---7---5----|-3---1---0---1---3-------0----|
B|-6---6-------------10--|-----8---8-----------------|---------------------3--------|
G|-----7-----------------|-9-------------------------|------------------------------|
D|-0---0-----------------|----------------------3----|------------------------------|
A|-------------------0---|---------------------------|---------3--------------------|
E|-----------------------|---------0-----------------|---------------------3---4----|


E|-------------0---3---0---3-|-5-----7--|-----7---8----7---5---------|---------------------|
B|-3---1---3-----------------|----------|-10-------------------8-----|-8---10---8----------|
G|---------------------------|----------|--------------------------9-|--------------10---9-|
D|---------------------------|-3-----5--|----------------------------|---------------------|
A|-----0---------------------|----------|---------0------------------|-----8---------------|
E|-----------------0---------|----------|----------------------0-----|-------------------8-|


E|------------------------|---------0--------------|------------------|--------------8---7---5-|
B|---------6--------------|-0----------------------|-------1---0------|-----8---8--------------|
G|-7---9-------9---7---5--|-----2-------4---0---2--|-2-------------2--|-9----------------------|
D|---------0--------------|---------------------0--|-3----------------|----------------------3-|
A|---------------------0--|------------------------|-3-------------3--|------------------------|
E|------------------------|---------0--------------|---------------5--|---------0--------------|



E|-3---1---0---1---3-------0----|-------------0---3----0---3---|-5--------5---7-----|
B|--

One Life chords – Justin Bieber V3

 SONG: One Life
ARTIST: Justin Bieber
 Journals (2014)

TUNING: Drop D (low to high: DADGBe)

CAPO: 1st fret

***CHORDS/TABS ARE IN RELATION TO CAPO***

CHORDS:
   F#maj7 G#sus4 C#maj9   D#min9
e|---0---|---x---|---x---|---0---||
B|---1---|---3---|---0---|---1---||
G|---2---|---5---|---5---|---2---||
D|---2---|---5---|---5---|---3---||
A|---x---|---3---|---x---|---x---||
D|---3---|---x---|---5---|---0---||

These are the only four chords played in the song, and they are in this order 
throughout. Hope this helps!



***LYRICS***

INTRO:
So girl
You just be honest with me, I know we can make this work
I love you

VERSE 1:
I know that you afraid, babe
But you don't need to be saved, babe
You just need someone who understands
And I think I need the same, babe
Show me where you at, let's keep it honest
Home is where you at and that's a promise
Open up and never keep it from us
Nothing left between us, baby, nothing
Tell me what you want, let's keep it gangsta
Tell me who created you, I'd thank her
Open up and never keep it from us
Nothing left between us, baby

PRE-CHORUS:
Hopefully you'll give me a chance
All I want is love and romance
I wanna give it all, give it all to you

CHORUS:
I wanna dream what you dream
Go where you're going
I only have one life
And I only wanna live it with you
I wanna sleep where you sleep
Connect with your soul
The only thing I want in life
I only wanna live it with you
Oh yeah, oh yeah
I only wanna live it with you
Only wanna live it with you

VERSE 2:
Tell me what you want, I can't believe it
I know that if we make it there's a reason
Sometimes the sun shines, baby
Sometimes the... ain't breezy
I hope that maybe this time it may be different
I told you I'm a make it, that commitment
Yeah, you took your shot and didn't miss it
Ain't nothing more attractive than ambition

[PRE-CHORUS]

[CHORUS]

BRIDGE
If I came to your crib would you open the door?
I don't wanna go down that road no more
Said you wanted it bad, but girl I wanted it more
You're the only one I wanna be with, yeah, yeah

[CHORUS]

Monsters solo Tabs by Matchbook Romance V2

 Espero este bien.

d#------------------------------------------------------------------|
A#------------------------------------------------------------------|
F#------------------------------------------11----------------------|
C#---s/9-8-4-2h3p2-0--9--s/12p11-12s/14-12------9-8-----------------|
G#------------------------------------------------------------------|
D#------------------------------------------------------------------|

d#-----------------------------------------------------------------|
A#--12,12,12,12----------11,11,11,11----------10,10,10,10----------|
F#--------------12,12,11-------------12,12,11-------------12,12,11-|
C#-----------------------------------------------------------------|
G#-----------------------------------------------------------------|
D#-----------------------------------------------------------------|

d#-------------10,10,9---------------------------------------------|
A#-12,12,12,12-----------------------------------------------------|
F#-----------------------------------------------------------------|
C#-----------------------------------------------------------------|
G#-----------------------------------------------------------------|
D#-----------------------------------------------------------------|

d#-----------------------------------------------------------------|
A#--12,12,12,12----------11,11,11,11----------10,10,10,10----------|
F#--------------12,12,11-------------12,12,11-------------12,12,11-|
C#-----------------------------------------------------------------|
G#-----------------------------------------------------------------|
D#-----------------------------------------------------------------|

d#-----------------------------------------------------------------|
A#-----------------------------------------------------------------|
F#-----7h9-7h9-7h9-------------------------------------------------|
C#-----------------------------------------------------------------|
G#-----------------------------------------------------------------|
D#-----------------------------------------------------------------|


d#-----------------------------------------------------------------|
A#-----------------------------------------------------------------|
F#--9b11-9p7---7--------------7h9-9b11--9p7-----7------------------|
C#-----------9--------------7h9-------------9----------------------|
G#------------------------7h9--------------------------------------|
D#-----------------------------------------------------------------|

d#--7-----10-------------------------------------------------------|
A#--10b12----10-8-7------------------------------------------------|
F#------------------9-7-6------------------------------------------|
C#------------------------9-8--------------------------------------|
G#-----------------------------------------------------------------|
D#-----------------------------------------------------------------|


d#-----------------------------------------------------------------|
A#-----------------------------------------------------------------|
F#--------------------------------------------------------7-7--9-9-|
C#-----------------------------7-7--8-8--9-9----7-7--9-9-----------|
G#-------------------7-7--9-9--------------------------------------|
D#--7-7--9-9--10-10------------------------------------------------|

d#------------------------------------------------------------------|
A#--7-7--10-10--11-11-12-0h2h3p2p0--0h2h3p2p0--0h3h5p3p0--0h3h5p3p0-|
F#------------------------------------------------------------------|
C#------------------------------------------------------------------|
G#------------------------------------------------------------------|
D#------------------------------------------------------------------|

d#-------------------------------------------------------------------|
A#--0h5h7p5p0--0h5h7p5p0--0h7h8p7p0--0h7h8p7p0--0h8h10p8p0-----------|
F#-----------

Under The Knife chords – One Man Romance

 Dear Ultimate-Guitar: Here's a link to their website: 
http://www.ramshackleglory.com/bands-onemanromance.html

Intro (lots of downstrumming, only the first two strings or so):  D/F# G  (4x)

First verse (same style as intro): 

 D/F# G D/F# G 
I got a phone call from Lake Worth
 D/F# G D/F# G 
That you were coming back today
 D/F# G D/F# G 
I spent three hours cleaning out your apartment
 D/F# G D/F# G 
In hopes that you would want to stay

 A G 
And maybe somewhere there's an anchor
 A G 
Rusting from all the desperate times we've sighed
 A G 
I'll tattoo it on my arm I'll cut the sleeves off from my shirt
 A G 
The only cliché I'll ever try to hide

Second Verse: Much brighter, use them upper strings. 

 D/F# G  (3x)  A D/F# G D/F# G 
I got a phone call from Lake Worth
 D/F# G D/F# G 
You just got on to ninety-five
 D/F# G D/F# G 
I spent three hours learning how to make a quilt
 D/F# G D/F# G 
So we'd have something to do when you arrived

 A G 
And maybe somewhere there's a mattress
 A G 
We can curl up on when we finish the last square
      A G 
I'll prototype a groundbreaking romantic blanket fortress
      A G 
When we're inside we'll never just not care

Chorus: 
    D G D G             
Oh I'm trying to be friends
     D G D G    
I'm trying to find the place between where hatred ends and love begins
 D G D G 
I only think in black and white
 D G D G A          
And X-Ray images of our hearts as they lie side by side
 A D 
Our love is under the knife

Instrumental bit (Chorus chords)

Third Verse: (Pluck bass string, strum chord once)

 D G D G 
I got a phone call from Lake Worth
 D G D G 
You turned around and went back home
 D G D G 
I spent seven hours destroying your apartment
 D G D G 
And drinking all the Listerine you own

(One strum each now, forget the bass string)

 A G 
And maybe someday you'll be happy
 A G 
That might mean never seeing me again
      A G 
And when I purge myself of all the mouthwash and self-pity
          A G 
I'll let go and let our hearts begin to mend

Chorus (raucous strumming now):
    D G D G             
Oh I'm trying to be friends
     D G D G    
I'm trying to find the place between where hatred ends and love begins
 D G D G 
I only think in black and white
 D G D G A          
And X-Ray images of our hearts as they lie side by side
 A D 
Our love is under the knife

Instrumental (Chorus chords)

 A</spa

The Swiss Army Romance chords – Dashboard Confessional V2

 There are no chord versions of this song on UltimateGuitar that have the right 
chords (only tabs). This is based off of live performances on youtube. All of 
which seems to end a little different.

Tuning: ½ step down. Eb,Ab,Db,Gb,Bb,Eb

CHORD KEY

Verse:
      E *  E/A F# A       
Eb|--0---0---0---0---
Ab|--0---0---0---0---
Db|--4---4---3---6---
Gb|--6---6---4---7--- 
Bb|--7---7---4---7---
Eb|--0---5---0---0--- 

Bridge:
     E **  E/D# C# B 
Eb|--0---0---0---0---
Ab|--0---0---0---0---
Db|--9---9---6---4---
Gb|--9---9---6---4--- 
Bb|--7---6---4---2---
Eb|--0---0---0---0---

Outro:
      E A F# A2 
Eb|--0---0---0---0---
Ab|--0---0---0---0---
Db|--1---6---3---2---
Gb|--2---7---4---2--- 
Bb|--2---7---4---0---
Eb|--0---0---0---X---


 E *                   E/A 
Sleep with all the lights on.
               F# 
You're not so happy.
              A 
You're not secure.
 E *                                  E/A 
You're dying to look cute in your blue jeans,
                               F# 
but you're plastic just like everyone.
                  A 
You're just like everyone.
 E *                           E/A 
And that face you paint is pressed
            F# A 
impressing most of us as permanent
     E *            E/A F# A 
and I'd like to see you un----done.
 E **                  E/D# 
College night will draw the crowds.
 C# B 
Dorms unload & your heading out.
 E **            E/D# C# B 
Here is your moment to shine.

 E **           E/D# 
Making up a history.
      C# B 
It's nothing from the life you lead
     E **              E/D# C# B 
but man, will they buy all your lines.

 E *                   E/A 
Sleep with all the sheets off
              F# 
bearing your mattress
              A 
bearing your soul.
 E *                                         E/A 
And you're dying to look smooth with your tattoos
                                F# 
but you're searching just like everyone
               A 
you could be anyone.
         E *                              E/A 
And the friends that you have are the best
            F# A 
impressing most of us as permanent
     E *            E/A F# A 
and I'd like to see you un----done.
 E **                  E/D# 
Youth's the most unfaithful mistress.
 C# B 
Still we forge ahead to miss her.
 E **           E/D# C# B 
Rushing our moment to shine.

 E **           E/D# 
Making up a history.
      C# B 
It's nothing from the life you lead
     E **             E/D# C# B 
but man, will they buy all your lines.

 E A F# A2 
 We're not twenty-one,
          E A 
 but the sooner we are,
      F# A2 
 the sooner the fun will begin,
 E A F# A2 
 so get out your fake eyelashes,
       E A 
 and fake ID's,
       F# <spa

Paper Romance chords – Groove Armada

 Intro
 C#m B F# A C#m 
Taste it in the air so sweet
 B F# A 
because they come alive
                        C#m 
my visions of the city street
 B F# A 
all of electrify

               C#m 
I feel your heat
 B F# A 
I never wanna let you go
                  C#m 
I rock too this beat
 B F# A 
I'm standing here to let you know


CHORUS
                     A 
yeah you can write me a love letter
 D# E B 
 but there's nothing to say
                     A D# E B 
 don't wanna take a chance on your paper romance anyway
                     A D# 
 yea you can rub it off much better
        E B  
if you come away



 C#m B F# A C#m 
my golden heart beats for you
 B F# A 
 my golden heart beats for two
             C#m 
 I feel my pain
 B F# A 
 the time it takes
              C#m 
 for us to change
 B F# A 
 its gonna happen anyway

               C#m 
I feel your heat
 B F# A 
 I never wanna let you go
                  C#m 
 I rock to this beat
 B F# A 
 I'm standing here to let you know
   


CHORUS


                     A 
yeah you can write me a love letter
 D# E B 
 but there's nothing to say
                     A D# E B 
 don't wanna take a chance on your paper romance anyway
                     A D# 
 yea you can rub it off much better
        E B  
if you come away

                     A 
yeah you can write me a love letter
 D# E B 
 but there's nothing to say
                     A D# E B 
 don't wanna take a chance on your paper romance anyway



                     A 
yeah you can write me a love letter
 D# E B 
 but there's nothing to say
                     A D# E B 
 don't wanna take a chance on your paper romance anyway
                     A D# 
 yea you can rub it off much better
        E B  
if you come away

Promise chords – Matchbook Romance V3

 Intro:
e|----0--0--0--0--0----0--0--0--0--0----0--0--0--0--0----0--0--0--0--0-|
B|----0--0--0--0--0----0--0--0--0--0----0--0--0--0--0----0--0--0--0--0-|
G|---------------------------------------------------------------------|
D|---------------------------------------------------------------------| 2x
A|--7---7--7--7--7---2---2--2--2--2---0---0--0--0--0---------0--2--2---|
E|-----------------------------------------------------2--4------------|

e|----0--0--0--7--0----0--0--2--0--0----0--2--5--4--2------------------|
B|----0--0--0--7--0----0--0--2--0--0----0--2--5--4--2------------------|
G|---------------------------------------------------------------------|
D|------------------------------------------------------4--6--7~-/-2~--| 
A|--7---7--7--7--7---2---2--2--2--2---0---0--0--0--0----4--6--7~-/-2~--|
E|------------------------------------------------------2--4--5~-/-0~--|


Verse I:
 E B A 
  What would you say if I asked you not to go
                        B E 
to forget everyone, forget everything and start over with me
                   B A 
would you take my hand and never let me go
                   B 
promise me you'll never let me go


Refrain:
 E B 
  And the stars aren't out tonight
                            A 
But neither are we to look up at them
Why does hello feel like goodbye?
 E B 
  These memories can't replace,
                                 A 
These wishes i wished and these dreams i chased
 F#m G#m A B E 
Take this broken heart and make it right


Chorus:
        E C#m A 
I feel like I lost everything when you're gone
        B E C#m 
Left remembering what it's like to have you here with me
    A 
I thought you should know,
        B 
You're not making this easy


Verse II:
 E B      
    I never thought I'd be the one to say
 A B 
please don't, please don't leave me


Chorus:
        E C#m A 
I feel like I lost everything when you're gone
        B E C#m 
Left remembering what it's like to have you here with me
    A 
I thought you should know,
        B E E - F#m - G#m  
You're not making this easy


Bridge I:
You're not making this easy (easy, easy, easy...)
 C#m - B - A 


Bridge II:
 C#m B A 
Take my hand and never let me go,
 C#m B A 
Take my hand and never let me go,
 C#m B 
Promise me...
              A 
You'll never let go
              B 
You'll never let go
              A 
You'll never let go
              B 
You'll never let go
Make this last forever


Repeat Chorus

Happy Playing. :D

Peterr A – Goodbye Romance chords

 These are the chords for my latest single, Goodbye Romance, out soon! Check it 
out! www.facebook.com/peterra123

*CAPO 4*

Goodbye Romance

Verse
 Bm D 
It's been a lovely love we've had,
 A 
Sometimes we're happy,
 Em 
Sometimes we're sad,
 Bm D 
We've given love every single chance,
           A 
But it's still goodbye,
     Em 
Goodbye romance.

 Bm D 
It once seemed so right,
 A Em 
We kissed right through the night,
 Bm D 
We gave love every single chance,
         A 
But it's still goodbye,
     Em 
Goodbye romance

Chorus
 G D 
Our lives have not blended,
 A Em G 
Our love was pretended,
 G D 
The music has ended,
          A 
No more 'can we dance'
         Em G 
It's goodbye romance

Verse
 Bm  |  D  |  A  |  Em Bm D 
It once seemed so right,
 A Em 
We kissed right through the night,
 Bm D 
We gave love every single chance,
         A 
But it's still goodbye,
     Em 
Goodbye romance

Chorus
 G D 
Our lives have not blended,
 A Em G 
Our love was pretended,
 G D 
The music has ended,
          A 
No more 'can we dance'
         Em G 
It's goodbye romance

 G D 
Our lives have not blended,
 A Em G 
Our love was pretended,
 G D 
The music has ended,
          A 
No more 'can we dance'
         Em G 
It's goodbye romance

Ambulance Tabs by My Chemical Romance

 -----------------------------------------------------------------------------
                             Ambulance – My Chemical Romance
-----------------------------------------------------------------------------

Tuning: Half Step Down

Intro
Guitar 1
eb|-------------------------------------------------------------------------|
Bb|--------------------------------171717171717171717171717-----------------|
Gb|1414141414141414141414141414141414141414141414141414141413131313---------|
Db|-------------------------------------------------------------------------|
Ab|1212121212121212121212121212121212121212121212121212121211111111---------|
Eb|-------------------------------------------------------------------------|

eb|-------------------------------------------------------------------------|
Bb|-------------------------------------------------------------------------|
Gb|1414141414141414141414141414131313/1818181818181818181818181818161616----|
Db|-------------------------------------------------------------------------|
Ab|1212121212121212121212121212111111/1616161616161616161616161616141414----|
Eb|-------------------------------------------------------------------------|

eb|-------------------------------------------------------------------------|
Bb|-------------------------------------------------------------------------|
Gb|1616161818182121211818181818181821212121212121212121212121191919---------|
Db|-------------------------------------------------------------------------|
Ab|1414141616161919191616161616161619191919191919191919191919171717---------|
Eb|-------------------------------------------------------------------------|

Verse
Guitar 2
eb|-------------------------------------------------------------------------|
Bb|-------------------------------------------------------------------------|
Gb|-------------------------------7777777766666666444444444447766-----------|
Db|77777777666666664444444444442227777777777777777444444444447766-----------|
Ab|77777777777777774444444444442225555555544444444222222222225544-----------|
Eb|5555555544444444222222222222000------------------------------------------|
PM.............................................................

Guitar 1
eb|-------------------------------------------------------------------------|
Bb|-------------------------------------------------------------------------|
Gb|-----------------------------------6669996666666---6661111119999999------|
Db|--------------------------------999-------------999----------------------|
Ab|-------------------------------------------------------------------------|
Eb|-------------------------------------------------------------------------|
PM                                ...................................

Guitar 2
eb|-------------------------------------------------------------------------|
Bb|-------------------------------------------------------------------------|
Gb|-------------------------------7777777766666666444444444444477-----------|
Db|77777777666666664444444444442227777777777777777444444444444477-----------|
Ab|77777777777777774444444444442225555555544444444222222222222255-----------|
Eb|5555555544444444222222222222000------------------------------------------|
PM.............................................................

Guitar 1
eb|-------------------------------------------------------------------------|
Bb|-------------------------------------------------------------------------|
Gb|-----------------------------------6669996666666---6661111119999999------|
Db|--------------------------------999-------------999----------------------|
Ab|-------------------------------------------------------------------------|
Eb|-------------------------------------------------------------------------|
PM                                ...................................

Pre Chorus
Guitar 2
eb|---------------------------------------------------

Boy Division chords – My Chemical Romance V4

 ------------------------------------------------------------------------------------
I found a cover of this song on Youtube that had really easy chords and which in my
opinion fit well,
so I made this tab in case anyone wanted a really easy version of the chords to sing
along to. It's
slightly different, since the cover doesn't include the "we got the bomb" part, but I'm
pretty sure you
can sing it during the "Am  F  C  G (x2)" part. If you want to check the cover out it's here:


It's not supposed to be 100% accurate, just a simple way to play the song.

This is also the first time I try to make a tab, so I might've messed up. If something's
wrong, don't
kill me, just point it out and I'll fix it :)

I also don't quite know how to get the chords lined up with the lyric they go with, but
you should
know when to play them by listening to the song.
------------------------------------------------------------------------------------


                      Am
If all the enemies threw a party,
           F
Would you light the candles,
           C
Would you drink the wine,
               G
While watching television,

 Am
Watch the animals
     F
and all the tragedies,
     C
And sell your arteries
    G
to buy my casket.

 Am F
    It better be black,
              C
It better be tight,
               G
It better be just my size,

 Am F
I'm stuck in these metromalls
     C G
And airport halls and all these schoolgirls,

 F C
I'm not asking, you're not telling
 F G C
He's not dead it only looks that way,


              G
I’m nowhere, take me out there
 Am F
Far away and save me from my
 C G
Self destruction, hopeless for ya,
 Am F
Sing a song for california

                     Am
I bought my enemies rope to hang me,
     F
And knives to gang me,
         C G
you can watch them stab me on your television,
 Am F C
Stomp the halls because I bash walls would have a lot to say
           G Am
About the lives you’re putting down

              F
It better be white
              C
It better be cut,
              G
It better be just my size

 Am F C
     Until them capillaries burst of boredom
 G
I'll be waiting

 F
I'm not laughing,
 C
You're not joking,
 F G C
I'm not dead I only dress that way.



                G
I’m nowhere, take me out there
 Am F
Far away and save me from my
 C G
Self destruction, hopeless for ya,
 Am F
Sing a song for California


 Am F C G   (x2)



 C G
   I’m nowhere, take me out there
 Am F
Far away and save me from my
 C G
Self destruction, hopeless for ya,
 Am F
Sing a prayer for California

Heaven Help Us Tabs by My Chemical Romance V5

 Artist: My Chemical Romance 
Song: Heaven Help Us
 The Black Parade 

. Go easy on me!

Guitar 1
e|--------------------------------------------------------------------------|
B|------------------------------3---3---3---3-------------------------------|
G|--5---5---5---5---4---4---4--2-2-2-2-2-2-2-2--5---5---5---5---------------|
D|-7-7-7-7-7-7-7-7-6-6-6-6-6-60---0-------0----5-5-5-5-5-5-5-5--------------|
A|0---0---0---0-----------------------0-------3---3-------------------------|
E|----------------0---0---0---------------------------3---4-----------------|
PM............................................................
Guitar 1
e|--------------------------------------------------------------------------|
B|------------------------------3---3---3---3-------------------------------|
G|--5---5---5---5---4---4---4--2-2-2-2-2-2-2-2--5---5---5---5---------------|
D|-7-7-7-7-7-7-7-7-6-6-6-6-6-60---0-------0----5-5-5-5-5-5-5-5--------------|
A|0---0---0---0-----------------------0-------3---3-------------------------|
E|----------------0---0---0---------------------------3---4-----------------|
PM............................................................
Guitar 2
e|--------------------------------------------------------------------------|
B|--------------------------------------------------------------------------|
G|--------------------------------77777777777777775555555555555555----------|
D|7777777777777777222222222222222277777777777777775555555555555555----------|
A|77777777777777772222222222222222555555550000555533333333------------------|
E|55555555555555550000000000000000------------------------33334444----------|
PM................................................................

Guitar 1
e|--------------------------------------------------------------------------|
B|------------------------------3---3---3---3-------------------------------|
G|--5---5---5---5---4---4---4--2-2-2-2-2-2-2-2--5---5---5---5---------------|
D|-7-7-7-7-7-7-7-7-6-6-6-6-6-60---0-------0----5-5-5-5-5-5-5-5--------------|
A|0---0---0---0-----------------------0-------3---3-------------------------|
E|----------------0---0---0---------------------------3---4-----------------|
PM............................................................
Guitar 2
e|--------------------------------------------------------------------------|
B|--------------------------------------------------------------------------|
G|--------------------------------77777777777777775555555555555555----------|
D|7777777777777777222222222222222277777777777777775555555555555555----------|
A|77777777777777772222222222222222555555550000555533333333------------------|
E|55555555555555550000000000000000------------------------33334444----------|
PM................................................................
Guitar 1
e|--------------------------------------------------------------------------|
B|------------------------------3---3---3---3-------------------------------|
G|--5---5---5---5---4---4---4--2-2-2-2-2-2-2-2--5---5---5---5---------------|
D|-7-7-7-7-7-7-7-7-6-6-6-6-6-60---0-------0----5-5-5-5-5-5-5-5--------------|
A|0---0---0---0-----------------------0-------3---3-------------------------|
E|----------------0---0---0---------------------------3---4-----------------|
PM....................................................
Guitar 2
e|--------------------------------------------------------------------------|
B|--------------------------------------------------------------------------|
G|--------------------------------77777777777777775555555555555555----------|
D|7777777777777777222222222222222277777777777777775555555555555555----------|
A|77777777777777772222222222222222555555550000555533333333------------------|
E|55555555555555550000000000000000------------------------33334444----------|
PM........................................................


Both Guitars
e|------------------

Kiss The Ring Tabs by My Chemical Romance

 Song: Kiss The Ring
 My Chemical Romance
 Conventional Weapons (#4)
Tuning: Standard

This sounds pretty much 100% to me, so if you don't agree then make your own tab.


Intro
guitar 2
e|-------------------------------------------------|
b|-------------------------------------------------|
g|-5-55-55-55-35-55-55-55--------------------------|
d|-5-55-55-55-35-55-55-55-6-66-66-66-65-55-54-44-4-|
a|-3-33-33-33-13-33-33-33-6-66-66-66-65-55-54-44-4-|
e|------------------------4-44-44-44-43-33-32-22-2-|

e|-------------------------------------------------|
b|-------------------------------------------------|
g|-5-55-55-55-35-55-55-55--------------------------|
d|-5-55-55-55-35-55-55-55-6-66-66-66-655--44-------|
a|-3-33-33-33-13-33-33-33-6-66-66-66-655--44-------|
e|------------------------4-44-44-44-433--22-------|

both guitars
e|-------------------------------------------------|
b|-------------------------------------------------|
g|-5-55-55-55-35-55-55-55--------------------------|
d|-5-55-55-55-35-55-55-55-6-66-66-66-65-55-54-44-4-|
a|-3-33-33-33-13-33-33-33-6-66-66-66-65-55-54-44-4-|
e|------------------------4-44-44-44-43-33-32-22-2-|

e|-------------------------------------------------|
b|-------------------------------------------------|
g|-5-55-55--8--5-55-55-10--------------------------|
d|-5-55-55--8--5-55-55-10-6-66-66-66-6-------------|
a|-3-33-33--6--3-33-33-8--6-66-66-66-6-------------|
e|------------------------4-44-44-44-4-3~--2~------|


bass part before guitar during verse
"We kill the girls..."
g|-----------------------------------------------------|
d|-----------------------------------------------------|
a|-3-33-33-33p1-3-33-33-33p1---------------------------|
e|-------------3------------3h4-44-44-44-43-33-32-22-2-|


"you'll get far, stay clean..."
bass
d|-------------------------------------------|
g|----------1----------3---------------------|
a|-3-33-33----3-33-33------------------------|
e|------------------------4-44-44-44-43~--2~-|

guitar (added)
e|-------------------------------------------|
b|-------------------------------------------|
g|----------3----------5---------------------|
d|----------3----------5--------------5~--4~-|
a|----------1----------3--------------5~--4~-|
e|------------------------------------3~--2~-|


verse
"That the world can make a change..."
guitar
e|-------------------------------------------------|
b|-------------------------------------------------|
g|-5-55-55-55-35-55-55-55--------------------------|
d|-5-55-55-55-35-55-55-55-6-66-66-66-65-55-54-44-4-|
a|-3-33-33-33-13-33-33-33-6-66-66-66-65-55-54-44-4-|
e|------------------------4-44-44-44-43-33-32-22-2-|


e|-------------------------------------------------|
b|-------------------------------------------------|
g|-5-55-55-55-35-55-55-55--------------------------|
d|-5-55-55-55-35-55-55-55-6-66-66-66-65~--4~-------|
a|-3-33-33-33-13-33-33-33-6-66-66-66-65~--4~-------|
e|------------------------4-44-44-44-43~--2~-------|


chorus
"'Cause the king is gone..."
e|---------------------------------------------------|
b|---------------------------------------------------|
g|-------------------------5-55-55-55-55-33-33-33-33-|
d|--3-33-33-33-33-33-33-33-5-55-55-55-55-33-33-33-33-|
a|--3-33-33-33-33-33-33-33-3-33-33-33-33-11-11-11-11-|
e|-*1-11-11-11-11-11-11-11---------------------------|
*ones

e|---------------------------------------------------|
b|---------------------------------------------------|
g|-------------------------5-55-55-55-55-88--88------|
d|--3-33-33-33-33-33-33-33-5-55-55-55-55-88--88------|
a|--3-33-33-33-33-33-33-33-3-33-33-33-33-66--66------|
e|-*1-11-11-11-11-11-11-11---------------------------|

e|---------------------------------------------------|
b|---------------------------------------------------|
g|-------------------------5-55-55-55-55-33-33-33-33-|
d|--3-33-33-33-33-33-33-33-5

All I Want For Christmas Is You chords – My Chemical Romance V2

 My Chemical Romance - All I want for Christmas (Originally by Mariah Carey) 

 G 
I dont want a lot for Christmas
 G 
There is just one thing I need
 C                                
I don't care about the presents 
 Cm 
Underneath the Christmas tree
 G B7 
I just want you for my own
 Em Cm 
More than you could ever know
 G E7 
Make my wish come true
 Am7                                              
Baby all I want for Christmas 
 Am7/D G Em C D 
is you

 G 
I dont want a lot for Christmas 
 G 
There is just one thing I need
 C 
And I dont care about the presents
 Cm 
Underneath the Christmas tree
 G 
I dont need to hang my stocking
 G 
Way above the fireplace
 C 
Santa Clause won't make me happy 
 Cm 
With a toy on Christmas day
 G B7 
And I just want you for my own
 Em Cm     
More than you could ever know
 G E7 
Make my wish come true
 Am7 Am7/D 
Oh baby all I want for Christmas is you, 
 G Em C D 
You         baby
 G 
I wont ask for much this Christmas
I wont even wish oh I wont even wish. I wont even wish for snow.
 C 
Im just gonna keep on waiting 
 Cm 
Underneath the mistletoe
 G 
I wont make a list and send it to the North Pole for St Nick
 C 
Wont even stay awake to 
 Cm 
Hear the magic reindeer play
 G B7 
Cause I just want you here tonight, 
 Em Cm 
Holdin on to me so tight

 G E7 
What more can I do
 Am7 Am7/D    
Oh baby all I want for Christmas is 
 G Em C D 
You,              Ooh baby
 B7 
Oh our lives are shinin 
 Em 
Surrounding everywhere 
 B7 
Where the sounds of childrens 
 Em 
Laughter fills the air
 Cm 
And everyone is singin 
 G E7 
Oh I hear those sleigh bells ringin
 Am7 
Santa wont you bring me the one I really need
            C 
Won’t you bring back my baby to me…
        G 
Oh I dont want a lot for Christmas

This is all Im askin for
 C 
I just want to see my baby 
 Cm 
Standing right outside my door
 G B7 
I just want you for my own
 Em Cm 
More than you could ever know
 G E7 
Make my wish come true
         Am7 Am7/D          
Baby all I want for Christmas is 
 G Em C D 
you, you, its you, you, oh baby
 G Em C D 
All I want is you [x4]
You, you, you, you, you
*End on G

Welcome To The Black Parade chords – My Chemical Romance V5

 So I might be wrong since Version 4 has 5 stars, but I think it was wrong in
some spots? I took Version 4 and edited it to what I think is right, so
thanks to the author of 4 for a good deal of it. Anyways, when I play this
I'm pretty sure it's 100% correct, but feel free to comment if something
sounds wrong to you! -agg2596


                     CHORDS 
     G D Em C Am Bm B A F#m 
e---3---2---0----0---0----2----2---0----2------|
B---3---3---0----1---1----3----4---2----2------|
G---0---2---0----0---2----4----4---2----2------|
D---0---0---2----2---2----4----4---2----4------|
A---2---x---2----3---0----2----2---0----4------|
E---3---x---0----x---x----x----x---x----x------|



Piano Intro (Each dash is an eighth note)
e-------------------------------------|
B-------------------------------------|
G----------4--------------------------|
D----5---4---2---0-5-------2-----0----|
A--------------------3---2---0--------|
E-------------------------------------|

      G D  
When I was a young boy
     Em D G C 
My father took me into the city
    Bm Em Am   -   D 
To see a marching band
            G D 
He said, "Son, when you grow up
       Em D G C  
Would you be the savior of the broken
     Bm Em Am   -   D 
The beaten and the damned??
            G D         
He said, "Will you defeat them
       Em D G C 
Your demons and all the non-believers
       Bm Em Am   -   D 
The plans that they have made?
         G D  
Because one day, I'll leave you
     Em D G C 
A phantom to lead you in the summer
     Bm Em Am   -   D 
To join the Black Parade
 G D Em Bm C G Am D G D  
When I was a young boy
     Em D G C 
My father took me into the city
     Bm Em Am   -   D 
To see a marching band
            G D 
He said, "Son, when you grow up
       Em D G C  
Would you be the savior of the broken
      Bm Em Am   -   D   -   G 
The beaten and the damned?? 
 G D Em Bm C D  

*Verse 1*
      G D 
Sometimes I get the feeling
        Em C 
She's watching over me
      C G D 
And other times I feel like I should go
      G D 
And through it all, the rise and fall
      Em C 
The bodies in the streets
      C G D 
And when you're gone we want you all to know

*Chorus*
              G D Em 
We'll carry on, we'll carry on
    G C              
And though you're dead and gone, believe me
       D G D Em 
Your memory will carry on, we'll carry on
    G C         
And in my heart, I can't contain it
     D 
The anthem won't explain it

*Verse 2*
    

Radancer Chords – Marmalade

 Radancer:Marmalade.
#6 in UK on DECCA Records in 1972.

INTRO:  A 

#1.
 A 
I saw a girl on a northern dance floor..

she looked sixteen, she could have been 

more.
 D A 
I went to her thinking only of romance..
              E D 
but when the band played, man, I didn't 
         A 
stand a chance..all she wanna do was..

CHORUS:
 A 
Dance, dance, dance, you ought to see her dance. 
 D 
Dance, dance, dance, move over, give her a chance. 
           E D 
Well, the people all stood around..watching her lay 

it down. 
           A E A 
She could dance, dance, dance the night away.
 
#2.
 A 
I tried to show some genuine affection..could be a 

chance of a close connection.
 D A 
I didn't know she was there for just one thing.  
                E D A 
Cause when the band played, man, you ought to see her swing.. 

swing down easy.

CHORUS:
 A 
Dance, dance, dance, you ought to see her dance. 
 D 
Dance, dance, dance, move over, give her a chance. 
           E D 
Well, the people all stood around..watching her lay 

it down. 
           A E A 
She could dance, dance, dance, the night away.


(INTERLUDE:)  D A D E A 

#3.
 A 
And when the dance was nearly over I decided I was really 

gonna show her. 
          D A 
I took a drink and I went to join the fun..(that's when the 
                                   E D 
fun had just begun)..and when the band played, man, I was 
           A 
second to none.

CHORUS:
 A 
Dance, dance, dance, you ought to see me dance. 
 D 
Dance, dance, dance, move over, give me a chance. 
           E D 
Well, the people all stood around..watching me lay 

it down. 
       A E A 
I can dance, dance, dance the night away.
                     E A 
Dance, dance, dance the night away.
                     E D A 
Dance, dance, dance the night away.

OUTRO:
 A 
Dance, dance, Watusi Baby..dance, dance, Funky Mofa..dance, 
 A 
dance, read your Sunday papers..dance, dance..desperate dance..
 A 
dance..dance, shake it, baby..dance, dance, rock n' roll dance..
 A 
dance, see you later..(Fade.)


A seventies smash from Kraziekhat.

April Was The Month Chords – Chris Farlowe

 April was the Month

     G C 
Was one night in Spring, 
      F G 
with stars in the sky.
        F C 
When a young girl called Molly,
       A# D 
put a gleam in my eye.
     G C 
Her hair was like raven,
     F G 
her smile, from the sun.
 G F 
April was the month,
     C G 
our romance begun.

 G F C G G C 
Each evening we'd meet,
      F G 
when working was through.
      F C 
We'd walk in the meadows,
          A# D 
where no others went to.
 G C 
Laughing and talking,
    F G 
we had so much fun.
 G F 
April was the month,
         C G 
that my romance begun.

 G F C G G C 
One day when I met her,
            F G 
she said a wrong had been done.
    F C 
Oh Johnny, dear Johnny,
        A# D 
I'm to bear you a son.
      G C 
With tears in her eyes,
    F G 
no smile from the sun.
 G F 
April was the month,
       C G 
Oh my romance begun.

 G F C G G C 
The church bell rang out.
              F G 
The greatest day of my life.
         F C 
For the raven haired Molly,
   A# D 
I took for my wife.
        G C 
In the fall of that year,
   F G 
A baby she was born.
 G F 
But Molly, dear Molly,
       C G 
never saw her young one.

 G F C G G C 
The ground it was cold,
        F G 
as the wind blew all around.
       F C 
As my raven haired Molly,
     A# D 
was laid in the ground.
     G C 
Her daughter was waiting,
         F G 
for her mother to come.
 G F 
April was the month,
    C G 
my romance begun,
 G F 
April was the month,
    C G 
my romance begun,

Miracle Chords – Ilse De Lange V5

 C * (one strum)                     G *
   Someone put a lock on this old door
                                    Am *
It's been beaten up and used and more
                                        F *
It's been kicked a hundred thousand times
                                C *
Keeping all the memories behind
                      
                                        G 
If you read the lines between the paint
                                           Am 
Look beyond the cracks that store away
                                            F 
It's hidden in the windows of the walls
                                            C 
Right behind the eyes that saw it all

                                    G 
Given all the facts of circumstance
                                  Am 
I did not believe that a romance
                                         F 
Would show itself in all this dark and blue
                                    C 
That's the only place I ever knew

                                    G 
You put me outside my safety-zone
                                    Am 
Outside all the lines that made my home
                                      F 
To find out that no one really lives
                                      C 
Without giving what it is you give

   Am F 
A miracle looking in my life
   C G 
A mirror-ball showing me all these faces
   Am F G 
A miracle looking in my life, after all
   Am F 
A miracle looking in my life
   C G 
A mirror-ball showing me all these faces
   Am F G 
A miracle, A miracle, A miracle

 C G 
I've been living underneath my skin
                             Am 
Everything I felt I kept it in
                                F 
It carried all the words without a sound
                                 C 
It got me, it almost got too loud

                                  G 
But now that my arms are holding on
                                  Am 
To someone as sacred as a song
                                     F 
To the one who wants to be my own
                                     C 
I have found that blood can come from stone

   Am F 
A miracle looking in my life
   C G 
A mirror-ball showing me all these faces
   Am F G 
A miracle looking in my life, after all
   Am F 
A miracle looking in my life
   C G 
A mirror-ball showing me all these faces
   Am F G 
A miracle, A miracle, A miracle

   Am F 
A miracle looking in my life
   C G 
A mirror-ball showing me all these faces
   Am F G 
A miracle looking in my life, after all
   Am F 
A miracle looking in my life
   C G 
A mirror-ball showing me all these faces
   Am F G 
A miracle, A miracle, A miracle

 C * (one strum)                      G *
   Someone put a lock on this old door
                                     Am *
It's been beaten up and used and more
                                        F *
It's been kicked a hundred thousand times
                               C *
Keeping

Trouble In These Parts Chords – The Milk Carton Kids

 The guitars in the song are tuned a halfstep down, wich makes it slightly easier 
to play the C/Eb. I can manage to play the song in a standard tuning, so I think 
you can do that aswell ;)

Intro:
|  C C/E  |  C C/Eb  |  C C/E  |  C C/Eb  | 

 C C/E C C / G 
Beauty, i know, lurks here
 C C/E C C / G 
Right 'round the corner, i fear
 C C/G C C/G Bm 
Dear, you can't be serious
 Am 
Judgement is near
 F 
My mind's always gone there
 C C/Eb 
There's trouble here

 C C/E C C / G 
In these parts that I've found on my own
 C C/E C C / G 
A solemn and safe little home
 C C/G C C/G Bm 
Slow dance to a lone romance 
 Am 
Out on the road
 F 
My mind's always gone there
 C C/Eb C 
There's trouble in these parts here

 Em F C C/Eb 
You'll learn how to fit & right in you'll slip
 Em F 
I'll wait up for you
 C C/E C C / Eb 
Black turns to blue

|  C C/E  |  C C / Eb  |  C C/E  |  C C / G |(play A couple of times. And play an awesome
|  Am  |  Am  |  F  |  C C/E  |  F C  |     solo, just do it like Kenneth if you can)
                                  (Mwahaha I bet you can't)
 
 C C/E C C / G 
Beauty, i know, lurks here
 C C/E C C / G 
Right 'round the corner, i fear
 C C/G C C/G Bm 
Dear, you can't be serious
 Am 
Mercy, I hear
 F 
My mind's always gone there
 C C/Eb C 
There's trouble here in these parts here

 Em F C C/Eb 
You'll learn how to fit & right in you'll slip
 Em F 
I'll wait up for you
 C C/E C C / Eb 
Black turns to blue
 Em F       
Between all the lines
 C C/Eb 
All four of my sides
 Em F C C/E  
To cover me in time

|  C C/Eb  |  C C / G  |  C  |


Enjoy!!

Stay At Home Chords – Yellow Ostrich V3

 This is based on the other versions available on the web, has only a few changes.
It's probably far from perfect, but it works for me. The intro and chords at the 
beginning should make up for the rhythm of the drums.

Capo on 2 fret: All chords relative to capo


Intro:  E D A E A  couple of times

 E D A 
If I see you, then you know
                     E 
This has gone too far
 E D A 
Cause our romance, can only live behind
                      E 
All the walls there are

          E 
And we never can meet
         D 
Oh we never can greet
       A E 
We never can say hello
             E 
Cause our bones are too weak
         D 
To be sold on the street
       A E 
To survive we must stay at home

(Same as first verse)
And I'll think of you, every other day
Just to throw them off
And I'll know you, by the color of your walls
In the beauty sky

(Same as first verse)
Cause out there, every little bird
Is shivering and cold, by this frightful air
And out there every little spark, quickly fading dark
From the strangers tail

(Same as chorus)
And we never can meet
Oh we never can greet
We never can say hello

Cause our bones are too weak
To be sold on the street
To survive we must stay at home

 Bm Am 
Inside, inside
 Bm Am 
Inside, Inside
        Bm Am 
Its where I will hide
       Bm Am 
Its where I will hide
      Bm Am 
Its where I will hide
       A 
From you

Outro:  E D A E A  couple of times