Tag: sales

Cest Pas Ma Faute Tabs by Les Sales Majestes

 

Verse x4

E|---------------------|---------------------|
B|---------------------|---------------------|
G|---------------------|---------------------|
D|-----------5---------|-----------7---------|
A|-5---------3---------|-7---------5---------|
E|-3-------------------|-5-------------------|


Pre-chorus

E|--------|--------|---------------------------------|---------------------------------|
B|--------|--------|---------------------------------|---------------------------------|
G|--------|--------|---------------------------------|---------------------------------|
D|-5------|--------|-5---5---5---5---5---5---5---5---|-7---7---7---7---7---7---7---7---|
A|-3------|-7------|-3---3---3---3---3---3---3---3---|-5---5---5---5---5---5---5---5---|
E|--------|-5------|---------------------------------|---------------------------------|

E|---------------------------------|
B|---------------------------------|
G|---------------------------------|
D|-7---7---7---7---7---7---7---7---|
A|-5---5---5---5---5---5---5---5---|
E|---------------------------------|


Chorus

E|---------------------------------|---------------------------------|
B|---------------------------------|---------------------------------|
G|---------------------------------|---------------------------------|
D|-----------------5---5---5---5---|-----------------7---7---7---7---|
A|-5---5---5---5---3---3---3---3---|-7---7---7---7---5---5---5---5---| x4
E|-3---3---3---3-------------------|-5---5---5---5-------------------|


Chorus End

E|--------|--------|---------------------------------|---------------------------------|
B|--------|--------|---------------------------------|---------------------------------|
G|--------|--------|---------------------------------|---------------------------------|
D|-5------|--------|-5---5---5---5---5---5---5---5---|-7---7---7---7---7---7---7---7---|
A|-3------|-7------|-3---3---3---3---3---3---3---3---|-5---5---5---5---5---5---5---5---|
E|--------|-5------|---------------------------------|---------------------------------|

E|---------------------------------|
B|---------------------------------|
G|---------------------------------|
D|-7---7---7---7---7---7---7---7---|
A|-5---5---5---5---5---5---5---5---|
E|---------------------------------|


Verse x4

Pre-chorus

Chorus

Chorus End


Verse x4

Pre-chorus

Chorus x2

Chorus End

End

E|---------------------|
B|---------------------|
G|---------------------|
D|---------------------|
A|-5-------------------|
E|-3-------------------|


Tab by hiphop :D

Les Pollueurs Tabs by Les Sales Majestes

 
Intro

E|---------------------------------|
B|---------------------------------|
G|---------------------------------|
D|---------------------------------|
A|-----6---6---6---6---6---6---6---|
E|-----4---7---4---7---4---7---4---|


E|------------------------|---------------------------------|
B|------------------------|---------------------------------|
G|------------------------|---------------------------------|
D|------------------------|---------------------------------|  x3
A|-6----6----6---6----6---|-6---6---6---6---6---6---6---6---|
E|-4----4----4---4----4---|-4---4---7---4---7---4---7---4---|


Intro 2

E|------------------------|---------------------------|------------------------------|-------------|
B|------------------------|---------------------------|------------------------------|-------------|
G|------------------------|---------------------------|------------------------------|-------------|
D|------------------------|---------------------------|------------------------------|-6-----4-----|
A|-6----6----6---6----6---|-6---6---6----6---6----6---|-6---6---6----6---6---6---6---|-4-----2-----| x2
E|-4----4----4---4----4---|-4---4---4----4---4----4---|-4---4---4----4---4---4---4---|-------------|


Verse x2

E|---------------------------------|---------------------------------|
B|---------------------------------|---------------------------------|
G|---------------------------------|---------------------------------|
D|---------------------------------|---------------------------------|
A|-6---6---6---6---6---6---6---6---|-6---6---6---6---6---6---6---6---|
E|-4---4---4---4---4---4---4---4---|-4---4---4---4---4---4---4---4---|

E|---------------------------------|---------------------------------|
B|---------------------------------|---------------------------------|
G|---------------------------------|---------------------------------|
D|---------------------------------|---------------------------------|
A|-6---6---6---6---6---6---6---6---|-6---6---6---6---6---6---6---6---|
E|-4---4---4---4---4---4---4---4---|-4---4---4---4---4---4---4---4---|

E|---------------------------------|---------------------------------|
B|---------------------------------|---------------------------------|
G|---------------------------------|---------------------------------|
D|---------------------------------|---------------------------------|
A|-2---2---2---2---2---2---2---2---|-0---0---0---0---0---0---0---0---|
E|-0---0---0---0---0---0---0---0---|-2---2---2---2---2---2---2---2---|

E|---------------------------------|---------------------------------|
B|---------------------------------|---------------------------------|
G|---------------------------------|---------------------------------|
D|---------------------------------|---------------------------------|
A|-6---6---6---6---6---6---6---6---|-6---6---6---6---6---6---6---6---|
E|-4---4---4---4---4---4---4---4---|-4---4---4---4---4---4---4---4---|


Verse End

E|--------|--------|-------------|---------------------|
B|--------|--------|-------------|---------------------|
G|--------|--------|-------------|---------------------|
D|-8------|-8------|-8-----8-----|-8----8----8----8----|
A|-6------|-6------|-6-----6-----|-6----6----6----6----|
E|--------|--------|-------------|---------------------|

Chorus x2

E|---------------------------------|---------------------------------|
B|---------------------------------|---------------------------------|
G|---------------------------------|---------------------------------|
D|---------------------------------|---------------------------------|
A|-2---2---2---2---2---2---2---2---|-6---6---6---6---6---6---6---6---| x3
E|-0---0---0---0---0---0---0---0---|-4---4---4---4---4---4---4---4---|


E|---------------------|---------------------|
B|---------------------|---------------------|
G|---------------------|---------------------|
D|-8----8----8----8----|

Sauf Qui Peut Tabs by Les Sales Majestes

 Intro

E|---------------------------|---------------------------------| |
B|---------------------------|---------------------------------| |
G|---------------------------|---------------------------------| |
D|--------------8---8----8---|-----------------6---6----6------| |
A|-8---8----8---6---6----6---|-6---6----6------4---4----4------| |
E|-6---6----6----------------|-4---4----4----------------------| |
                                                                 | x2
E|---------------------------|---------------------------------| |
B|---------------------------|---------------------------------| |
G|---------------------------|---------------------------------| |
D|--------------8---8----8---|---------------------------------| |
A|-8---8----8---6---6----6---|-6---6---6---6---6---6---6---6---| |
E|-6---6----6----------------|-4---4---4---4---4---4---4---4---| |

Verse

E|---------------------|---------------------|---------------------|---------------------|
B|---------------------|---------------------|---------------------|---------------------|
G|---------------------|---------------------|---------------------|---------------------|
D|-----------8---------|-----------6---------|-----------8---------|---------------------|
A|-8---------6---------|-6---------4---------|-8---------6---------|-6---------6---------|
E|-6-------------------|-4-------------------|-6-------------------|-4---------4---------|


E|---------------------|---------------------|---------------------|---------------------|
B|---------------------|---------------------|---------------------|---------------------|
G|---------------------|---------------------|---------------------|---------------------|
D|-----------8---------|-----------6---------|-----------8---------|-----------6---------|
A|-8---------6---------|-6---------4---------|-8---------6---------|-6---------4---------|
E|-6-------------------|-4-------------------|-6-------------------|-4-------------------|


E|---------------------|
B|---------------------|
G|---------------------|
D|-----------6---------|
A|-6---------4---------|
E|-4-------------------|


Chorus

E|-------------|---------------------------------|
B|-------------|---------------------------------|
G|-------------|---------------------------------|
D|-------8-----|-6---6---6---6---6---6---6---6---|
A|-8-----6-----|-4---4---4---4---4---4---4---4---| x4
E|-6-----------|---------------------------------|


Verse


Chorus 


Solo
        
        Rhythm: 
        
            Verse + Chorus + 

E|---------------------------------|
B|---------------------------------|
G|---------------------------------|
D|-6---6---6---6---6---6---6---6---|
A|-4---4---4---4---4---4---4---4---|
E|---------------------------------|


    Solo:
    

E|---------------------------------|------------------------------|
B|---------------------------------|-------------------------9----|
G|-----------------10----------10--|-----------------10--10-------|
D|-8---8---8---8-------8---8-------|-8---8---8---8----------------|
A|---------------------------------|------------------------------|
E|---------------------------------|------------------------------|


E|---------------------------------|---------------------------------|
B|---------------------------------|---------------------------------|
G|-----------------10----------10--|-----------------10--9---8-------|
D|-8---8---8---8-------8---8-------|-8---8---8---8---------------11--|
A|---------------------------------|---------------------------------|
E|---------------------------------|---------------------------------|


E|---------------------------------|------------------------------|
B|---------------------------------|-------------------------9----|
G|-----------------10----------10--|-----------------10--10-------|
D|-8---8---8---8-------8---8-------|-8---8---8---8----------------|
A|

Hml Tabs by Les Sales Majestes

 Intro

E|---------------------------|---------------------------------|
B|---------------------------|---------------------------------|
G|---------------------------|---------------------------------|
D|--------------8----8-------|---------------------------------|  x4
A|-10---10--10--6----6---8---|-8---8---10--8---8---8---10--8---|
E|-8----8---8------------6---|-6---6---6---6---6---6---6---6---|  

Verse

E|-------------|-------------|
B|-------------|-------------|
G|-------------|-------------|
D|-------8-----|-------------|  x4
A|-10----6-----|-8-----8-----| 
E|-8-----------|-6-----6-----|


Chorus

E|---------------------|---------------------|---------------------|---------------------|
B|---------------------|---------------------|---------------------|---------------------|
G|---------------------|---------------------|---------------------|---------------------|
D|---------------------|-8----8----8----8----|---------------------|---------------------|
A|-6----6----6----6----|-6----6----6----6----|-8----8----8----8----|-10---10---10---10---| x2
E|-4----4----4----4----|---------------------|-6----6----6----6----|-8----8----8----8----|


E|---------------------|---------------------|
B|---------------------|---------------------|
G|---------------------|---------------------|
D|---------------------|---------------------|
A|-8----8----8----8----|-8-------------------|
E|-6----6----6----6----|-6-------------------|


Intro

Verse

Chorus

Intro

Solo

    Rhythm:

E|-------------|-------------|
B|-------------|-------------|
G|-------------|-------------|
D|-------8-----|-------------| x6
A|-10----6-----|-8-----8-----|
E|-8-----------|-6-----6-----|


E|---------------------|---------------------|---------------------|---------------------|
B|---------------------|---------------------|---------------------|---------------------|
G|---------------------|---------------------|---------------------|---------------------|
D|---------------------|-8----8----8----8----|---------------------|---------------------| x2
A|-6----6----6----6----|-6----6----6----6----|-8----8----8----8----|-10---10---10---10---|
E|-4----4----4----4----|---------------------|-6----6----6----6----|-8----8----8----8----| 


E|---------------------|---------------------|
B|---------------------|---------------------|
G|---------------------|---------------------|
D|---------------------|---------------------|
A|-8----8----8----8----|-8-------------------|
E|-6----6----6----6----|-6-------------------|


    Solo:
    
E|-----------------|-----------------|-----------------|--------|
B|-------8----9----|-8---------------|-11----9----8----|--------|
G|-----------------|-----------------|-----------------|--------|
D|-10--------------|-------10---10---|-----------------|-10-----|
A|-----------------|-----------------|-----------------|--------|
E|-----------------|-----------------|-----------------|--------|


E|-----------------|-----------------|-----------------|--------|
B|-------8----9----|-8---------------|-11----9----8----|--------|
G|-----------------|-----------------|-----------------|--------|
D|-10--------------|-------10---10---|-----------------|-10-----|
A|-----------------|-----------------|-----------------|--------|
E|-----------------|-----------------|-----------------|--------|


E|-------15---16---|-15--------------|-18----16---15---|--------|
B|-13--------------|-------13---13---|-----------------|-13-----|
G|-----------------|-----------------|-----------------|--------|
D|-----------------|-----------------|-----------------|--------|
A|-----------------|-----------------|-----------------|--------|
E|-----------------|-----------------|-----------------|--------|


E|---------------------|---------------------|---------------------|--------------------|
B|---------------------|---------------------|---------------------|---

Les Vacances Tabs by Les Sales Majestes

 Les Sales Majestés - Les vacances


Intro x4

E|---------------------------------|
B|---------------------------------|
G|---------------------------------|
D|-11--11----------11--11----------|
A|-9---9-----------9---9-----------|
E|---------------------------------|


Verse

E|---------------------|---------------------|---------------------|---------------------|
B|---------------------|---------------------|---------------------|---------------------|
G|---------------------|---------------------|---------------------|---------------------|
D|-11---11---11---11---|---------------------|-9----9----9----9----|---------------------| x2
A|-9----9----9----9----|-7----7----7----7----|-7----7----7----7----|-9----9----9----9----|
E|---------------------|-5----5----5----5----|---------------------|-7----7----7----7----|


Break

  Part 1

E|-------------|
B|-------------|
G|-------------|
D|-14----------| x2
A|-12----------|
E|-------------|

  Part 2

E|---------------------------------|---------------------------------|
B|---------------------------------|---------------------------------|
G|---------------------------------|---------------------------------|
D|-14--14--14--14--9---9---9---9---|---------------------------------|
A|-12--12--12--12--7---7---7---7---|-9---9---9---9---9---9---9---9---| x2
E|---------------------------------|-7---7---7---7---7---7---7---7---|


Verse


Break


Break 2

E|---------------------------------|-----------------------------|
B|---------------------------------|-----------------------------|
G|---------------------------------|-----------------------------|
D|-11--11--11--11--11--11--11--11--|-11----9----9---9----9---9---| x2
A|-9---9---9---9---9---9---9---9---|-9-----7----7---7----7---7---|
E|---------------------------------|-----------------------------|



Solo

  Background guitar

E|---------------------|---------------------|---------------------|---------------------|
B|---------------------|---------------------|---------------------|---------------------|
G|---------------------|---------------------|---------------------|---------------------|
D|-11---11---11---11---|---------------------|-9----9----9----9----|---------------------| x2
A|-9----9----9----9----|-7----7----7----7----|-7----7----7----7----|-9----9----9----9----|
E|---------------------|-5----5----5----5----|---------------------|-7----7----7----7----|



E|-------------|-------------|
B|-------------|-------------|
G|-------------|-------------|
D|-------9-----|-------------| x4
A|-7-----7-----|-9-----9-----|
E|-5-----------|-7-----7-----|


  Solo
  
E|------------------------|------------------------|
B|-----------14-------14--|-----------14-------14--|
G|-11---11--------11------|-14---14--------14------|
D|------------------------|------------------------|
A|------------------------|------------------------|
E|------------------------|------------------------|

E|------------------------|------------------------|
B|----------------14------|--------------17---16---|
G|-16---16---16-------14--|-11-------11------------|
D|------------------------|------------------------|
A|------------------------|------------------------|
E|------------------------|------------------------|


E|------------------------|------------------------|
B|-----------14-------14--|-----------14-------14--|
G|-11---11--------11------|-14---14--------14------|
D|------------------------|------------------------|
A|------------------------|------------------------|
E|------------------------|------------------------|

E|------------------------|------------------------|
B|----------------14------|--------------17---16---|
G|-16---16---16-------14--|-11-------11------------|
D|------------------------|------------------------|
A|------------------------|------------------------|
E|------------------------|------------------------|

Sans Futur Tabs by Les Sales Majestes

 Les Sales Majestés - Sans futur


Intro

E|---------------------|
B|---------------------|
G|---------------------|
D|-----------9----7----|
A|-----------7----5----|
E|---------------------|

E|------------------------------|---------------------|
B|------------------------------|---------------------|
G|------------------------------|---------------------|
D|-5----5---5---5---5---5---5---|-5----5----9----7----|
A|-3----3---3---3---3---3---3---|-3----3----7----5----| x3 
E|------------------------------|---------------------|

E|------------------------------|---------------------|
B|------------------------------|---------------------|
G|------------------------------|---------------------|
D|-5----5---5---5---5---5---5---|-5----5----5----5----|
A|-3----3---3---3---3---3---3---|-3----3----3----3----|
E|------------------------------|---------------------|


Verse

E|---------------------|-------------|-------------|-------------|
B|---------------------|-------------|-------------|-------------|
G|---------------------|-------------|-------------|-------------|
D|-5----5----5----5----|-------------|-------------|-------------|
A|-3----3----3----3----|-6-----6-----|-3-----3-----|-5-----5-----| x2
E|---------------------|-4-----4-----|-1-----1-----|-3-----3-----|


Break

E|--------|--------|--------|--------|
B|--------|--------|--------|--------|
G|--------|--------|--------|--------|
D|--------|--------|--------|--------|   x2
A|-6------|-6------|-5------|-5------|
E|-4------|-4------|-3------|-3------|

E|--------|--------|
B|--------|--------|
G|--------|--------|
D|--------|--------|
A|-5------|-5------|
E|-3------|-3------|


Chorus

E|--------|--------|--------|--------|--------|--------|--------|--------|
B|--------|--------|--------|--------|--------|--------|--------|--------|
G|--------|--------|--------|--------|--------|--------|--------|--------|
D|--------|-5------|--------|-5------|--------|-5------|--------|--------| x2
A|-6------|-3------|-6------|-3------|-6------|-3------|-5------|-5------|
E|-4------|--------|-4------|--------|-4------|--------|-3------|-3------|


Break 2


E|------------------------|---------------------|------------------------|---------------------|
B|------------------------|---------------------|------------------------|---------------------|
G|------------------------|---------------------|------------------------|---------------------|
D|-5----5----5---5----5---|-5----5----5----3----|------------------------|---------------------|
A|-3----3----3---3----3---|-3----3----3----1----|-6----6----6---6----6---|-6----6----6----5----|
E|------------------------|---------------------|-4----4----4---4----4---|-4----4----4----3----|


E|---------------------|-----------------|-----------------------------|-----------------------|
B|---------------------|-----------------|-----------------------------|-----------------------|
G|---------------------|-----------------|-----------------------------|-----------------------|
D|---------------------|-----------------|-----------------------------|-----------------------|
A|-3---3---3---3---3---|-3---3---5---3---|-5---5---5---5---5---5---5---|-5---------------------|
E|-1---1---1---1---1---|-1---1---3---1---|-3---3---3---3---3---3---3---|-3---------------------|


Verse


Break


Chorus


Break 2


Solo

  Background guitar: verse + break

  Solo

E|-----------------|-------------|-----------------|-------------|
B|-----------------|-------------|-----------------|-------------|
G|-----------------|-------------|-----------------|-------------|
D|-10---------10---|-13----12----|-10---------10---|-13----12----|
A|-----------------|-------------|-----------------|-------------|
E|-----------------|-------------|-----------------|-------------|


E|-----------------|-------------|-----------------|--------|
B|-----------------|----------

Tous Des Salopes Tabs by Les Sales Majestes

 Les Sales Majestés - Tous des salopes


Verse

E|--------|--------|--------|--------|--------|--------|--------|--------|
B|--------|--------|--------|--------|--------|--------|--------|--------|
G|--------|-5------|--------|-8------|--------|-5------|--------|-8------|
D|-6------|-5------|-3------|-8------|-6------|-5------|-3------|-8------|
A|-6------|-3------|-3------|-6------|-6------|-3------|-3------|-6------|
E|-4------|--------|-1------|--------|-4------|--------|-1------|--------|


E|-------------|--------|--------|--------|
B|-------------|--------|--------|--------|
G|-------5-----|-10-----|-8------|-8------|
D|-6-----5-----|-10-----|-8------|-8------|
A|-6-----3-----|-8------|-6------|-6------|
E|-4-----------|--------|--------|--------|


Chorus

E|-------------|-------------|-------------|-------------|
B|-------------|-------------|-------------|-------------|
G|-------5-----|-10----8-----|-------5-----|-10----8-----|
D|-6-----5-----|-10----8-----|-6-----5-----|-10----8-----|
A|-6-----3-----|-8-----6-----|-6-----3-----|-8-----6-----|
E|-4-----------|-------------|-4-----------|-------------|

E|-------------|--------|--------|--------|
B|-------------|--------|--------|--------|
G|-------5-----|-10-----|-8------|-8------|
D|-6-----5-----|-10-----|-8------|-8------|
A|-6-----3-----|-8------|-6------|-6------|
E|-4-----------|--------|--------|--------|


Bridge

E|-------------|-------------|-------------|-------------|
B|-------------|-------------|-------------|-------------|
G|-------5-----|-10----8-----|-------5-----|-10----8-----|
D|-6-----5-----|-10----8-----|-6-----5-----|-10----8-----|
A|-6-----3-----|-8-----6-----|-6-----3-----|-8-----6-----|
E|-4-----------|-------------|-4-----------|-------------|

E|-------------|--------|--------|--------|
B|-------------|--------|--------|--------|
G|-------5-----|-10-----|-8------|-8------|
D|-6-----5-----|-10-----|-8------|-8------|
A|-6-----3-----|-8------|-6------|-6------|
E|-4-----------|--------|--------|--------|


Verse


Chorus


Bridge 2

E|--------|--------|--------|--------|--------|--------|--------|--------|
B|--------|--------|--------|--------|--------|--------|--------|--------|
G|--------|-5------|--------|-8------|--------|-5------|--------|-8------|
D|-6------|-5------|-3------|-8------|-6------|-5------|-3------|-8------|
A|-6------|-3------|-3------|-6------|-6------|-3------|-3------|-6------|
E|-4------|--------|-1------|--------|-4------|--------|-1------|--------|


E|-------------|--------|--------|--------|
B|-------------|--------|--------|--------|
G|-------5-----|-10-----|-8------|-8------|
D|-6-----5-----|-10-----|-8------|-8------|
A|-6-----3-----|-8------|-6------|-6------|
E|-4-----------|--------|--------|--------|


Chorus x2



Tab by hiphop :D

Dgage Tabs by Les Sales Majestes

 Les Sales Majestés - Dégage

Intro

E|------------------------|------------------------------|
B|------------------------|------------------------------|
G|-7----7----5----5-------|------------------------------|
D|-7----7----5----5---7---|-7---7---7----7---7---7---7---| x4
A|-5----5----3----3---7---|-7---7---7----7---7---7---7---|
E|--------------------5---|-5---5---5----5---5---5---5---|


Verse (same as intro)


Break

E|------------------------|-----------------------|--------------------|--------------------|
B|------------------------|-----------------------|--------------------|--------------------|
G|------------------------|-----------------------|--------------------|--------------------|
D|-5------5---------------|-5------5--------------|-7--------7---------|-7--------7---------|
A|-3------3---------------|-3------3--------------|-5--------5---------|-5--------5---------|
E|------------------------|-----------------------|--------------------|--------------------|


Chorus (same as intro)


Verse


Break


Chorus


Solo
 
  Background guitar: play intro x 4, break and intro

  Solo

E|---------------------|---------------------|---------------------|---------------------|
B|---------------------|---------------------|---------------------|---------------------|
G|-14---15---14---15---|-14---15---14---15---|-14---15---14---15---|-14---15---17--------|
D|---------------------|---------------------|---------------------|---------------------|
A|---------------------|---------------------|---------------------|---------------------|
E|---------------------|---------------------|---------------------|---------------------|


E|---------------------|---------------------|---------------------|---------------------|
B|---------------------|---------------------|---------------------|---------------------|
G|-14---15---14---15---|-14---15---14---15---|-14---15---14---15---|-14------------------|
D|---------------------|---------------------|---------------------|---------------------|
A|---------------------|---------------------|---------------------|---------------------|
E|---------------------|---------------------|---------------------|---------------------|


E|----------------14---|-15--------14---15---|----------------15---|-14------------------|
B|-13---13-------------|---------------------|-13---13-------------|-----------13---12---|
G|---------------------|---------------------|---------------------|---------------------|
D|---------------------|---------------------|---------------------|---------------------|
A|---------------------|---------------------|---------------------|---------------------|
E|---------------------|---------------------|---------------------|---------------------|


E|----------------14---|-15--------14---15---|---------------------|---------------------|
B|-13---13-------------|---------------------|---------------------|---------------------|
G|---------------------|---------------------|-14---14--------12---|-14---14--------12---|
D|---------------------|---------------------|---------------------|---------------------|
A|---------------------|---------------------|---------------------|---------------------|
E|---------------------|---------------------|---------------------|---------------------|


E|---------------------|---------------------|---------------------|---------------------|
B|---------------------|---------------------|---------------------|---------------------|
G|-14------------------|---------------------|-16------------------|-17------------------|
D|---------------------|---------------------|---------------------|---------------------|
A|---------------------|---------------------|---------------------|---------------------|
E|---------------------|---------------------|---------------------|---------------------|


E|---------------------|---------------------|------------

Chez Momo Tabs by Les Sales Majestes

 Les Sales Majestés - Chez Momo


Intro x2

E|------------------------|------------------------|
B|------------------------|------------------------|
G|-7----7----7----10--12--|-12---12-------12--10---|
D|-7----7----7----10--12--|-12---12-------12--10---| x3
A|-5----5----5----8---10--|-10---10-------10--8----|
E|------------------------|------------------------|


E|---------------------|---------------------|
B|---------------------|---------------------|
G|-10---10---10---10---|-15---15--------15---|
D|-10---10---10---10---|-15---15--------15---|
A|-8----8----8----8----|-13---13--------13---|
E|---------------------|---------------------|


Verse

  Part 1

E|--------|--------|--------|--------|
B|--------|--------|--------|--------|
G|-7------|--------|-7------|--------|
D|-7------|-5------|-7------|-5------|
A|-5------|-5------|-5------|-5------|
E|--------|-3------|--------|-3------|


E|--------|--------|--------|--------|
B|--------|--------|--------|--------|
G|-7------|--------|--------|--------|
D|-7------|-5------|-3------|-8------|
A|-5------|-5------|-3------|-8------|
E|--------|-3------|-1------|-6------|

  Part 2

E|--------|--------|--------|--------|
B|--------|--------|--------|--------|
G|-7------|--------|-7------|-3------|
D|-7------|-5------|-7------|-3------|
A|-5------|-5------|-5------|-1------|
E|--------|-3------|--------|--------|


E|--------|--------|--------|--------|
B|--------|--------|--------|--------|
G|-5------|--------|-7------|-14-----|
D|-5------|-5------|-7------|-14-----|
A|-3------|-5------|-5------|-12-----|
E|--------|-3------|--------|--------|



Break

  Background Guitar

E|--------|--------|--------|--------|
B|--------|--------|--------|--------|
G|-7------|--------|-7------|-3------|
D|-7------|-5------|-7------|-3------|
A|-5------|-5------|-5------|-1------|
E|--------|-3------|--------|--------|


E|--------|--------|--------|--------|
B|--------|--------|--------|--------|
G|-5------|--------|-7------|-14-----|
D|-5------|-5------|-7------|-14-----|
A|-3------|-5------|-5------|-12-----|
E|--------|-3------|--------|--------|


  Solo

E|---------------------|---------------------|
B|---------------------|-12------------------|
G|---------------------|-----------12--------|
D|-12---12---12---12---|---------------------|
A|---------------------|---------------------|
E|---------------------|---------------------|


E|---------------------|---------------------|
B|-10---10---10---10---|-11------------------|
G|---------------------|-----------10--------|
D|---------------------|---------------------|
A|---------------------|---------------------|
E|---------------------|---------------------|

E|---------------------|---------------------|
B|-10---10---10---10---|-12------------------|
G|---------------------|-----------12--------|
D|---------------------|---------------------|
A|---------------------|---------------------|
E|---------------------|---------------------|


E|---------------------|---------------------|
B|-10---10---10---10---|---------------------|
G|---------------------|-12--------10--------|
D|---------------------|---------------------|
A|---------------------|---------------------|
E|---------------------|---------------------|



Intro


Verse


Break


Intro


Verse


Repeat Verse Part 2


End

  Background Guitar: play Intro


  Solo

E|---------------------------------|---------------------------------|
B|---------------------------------|---------------------------------|
G|---------10--12----------10--12--|---------10--12----------10--12--|
D|-10--12----------10--12----------|-10--12----------10--12----------|
A|---------------------------------|---------------------------------|
E|---------------------------------|---------------------------------|


E|---------------------------------|--------

Sois Pauvre Et Tais-toi Tabs by Les Sales Majestes

 Les Sales Majestés - Sois pauvre et tais-toi

Intro

E|---------------------|
B|---------------------|
G|-----------8----7----|
D|-----------8----7----|
A|-----------6----5----|
E|---------------------|


E|---------------------|---------------------|---------------------|---------------------|
B|---------------------|---------------------|---------------------|---------------------|
G|-5----5----5---------|---------------------|---------------------|-----------8----7----|
D|-5----5----5----5----|-6----6----6----5----|-3----3----3----5----|-5----5----8----7----|  x4
A|-3----3----3----5----|-6----6----6----5----|-3----3----3----5----|-5----5----6----5----|
E|----------------3----|-4----4----4----3----|-1----1----1----3----|-3----3--------------|




E|---------------------|---------------------|
B|---------------------|---------------------|
G|-5----5----5----5----|-5----5----8----7----|
D|-5----5----5----5----|-5----5----8----7----| x 3
A|-3----3----3----3----|-3----3----6----5----|
E|---------------------|---------------------|


E|---------------------|---------------------|
B|---------------------|---------------------|
G|-5----5----5----5----|-5-------------------|
D|-5----5----5----5----|-5-------------------|
A|-3----3----3----3----|-3-------------------|
E|---------------------|---------------------|


Verse

E|---------------------|---------------------|---------------------|---------------------|
B|---------------------|---------------------|---------------------|---------------------|
G|-5----5----5----5----|---------------------|---------------------|---------------------|
D|-5----5----5----5----|-6----6----6----6----|-3----3----3----3----|-5----5----5----5----| x4
A|-3----3----3----3----|-6----6----6----6----|-3----3----3----3----|-5----5----5----5----|
E|---------------------|-4----4----4----4----|-1----1----1----1----|-3----3----3----3----|


Bridge

E|-------|------|-------|------|-------|------|--------|--------|-------------|-------------|
B|-------|------|-------|------|-------|------|--------|--------|-------------|-------------|
G|-------|------|-------|------|-------|------|--------|--------|-------------|-------------|
D|-6-----|------|-5-----|------|-6-----|------|-5------|-5------|-5-----5-----|-5-----5-----|
A|-6-----|------|-5-----|------|-6-----|------|-5------|-5------|-5-----5-----|-5-----5-----|
E|-4-----|------|-3-----|------|-4-----|------|-3------|-3------|-3-----3-----|-3-----3-----|


Chorus

E|---------------------|---------------------|---------------------|---------------------|
B|---------------------|---------------------|---------------------|---------------------|
G|-5----5----5----5----|---------------------|---------------------|---------------------|
D|-5----5----5----5----|-6----6----6----6----|-3----3----3----3----|-5----5----5----5----| x4
A|-3----3----3----3----|-6----6----6----6----|-3----3----3----3----|-5----5----5----5----|
E|---------------------|-4----4----4----4----|-1----1----1----1----|-3----3----3----3----|



Verse


Bridge


Chorus


Bridge


Solo

  Background guitar play Verse + Bridge

E|---------------------------|---------------------------------|
B|-13---15---16--13--15--13--|-16--13--15--13--16--13--15--13--|
G|---------------------------|---------------------------------|
D|---------------------------|---------------------------------|
A|---------------------------|---------------------------------|
E|---------------------------|---------------------------------|

E|---------------------------------|---------------------------------|
B|-16--13--15--13--16--13--15--13--|-16--13--15--13--16--13--15--13--|
G|---------------------------------|---------------------------------|
D|---------------------------------|---------------------------------|
A|---------------------------------|---------------------------------|
E|---------------------------------|--------

Some Dispute Over T-shirt Sales Tabs by Butthole Surfers

 SOME DISPUTE OVER T-SHIRT SALES

by the butthole surfers

 chris lawrence (mustang@islandnet.com)

Intro:

E----------------------------------------------------------14b-14b-14br^12\10-|
B-----------------------------------------------------------------------------|
G----------------12-12---------12-12---------12b(12)12r-10--------------------|
D--12-12-X-X-X-X-12-12-X-X-X-X-12-12-X-X-X-X----------------------------------|
A--12-12-X-X-X-X-10-10-X-X-X-X-10-10-X-X-X-X----------------------------------|
E--10-10-X-X-X-X-------X-X-X-X-------X-X-X-X----------------------------------|

Repeat simile.

Verse:

E--------------------------------------------------------------|
B--------------------------------------------------------------|
G--------------------------------------------------------------|
D--12-12-X-X-X-X-12-12-X-X-X-X-12-12-X-X-X-X-12-X-X-X-X-X-X-X--|
A--12-12-X-X-X-X-12-12-X-X-X-X-12-12-X-X-X-X-12-X-X-X-X-X-X-X--|
E--10-10-X-X-X-X-10-10-X-X-X-X-10-10-X-X-X-X-10-X-X-X-X-X-X-X--|

End of verse:

E------------|
B------------|
G------------|
D--8-8-8-8-7-|
A--8-8-8-8-7-|
E--6-6-6-6-5-|

Play intro riff again, back into verse...
Play intro riff again, back into verse...

this time at the end of the verse, play:

E----------------------------------|
B----------------------------------|
G----------------------------------| ETC
D--8-8-8-8-7-7-X-X-X-X-7-7-X-X-X-X-|
A--8-8-8-8-7-7-X-X-X-X-7-7-X-X-X-X-|
E--6-6-6-6-5-5-X-X-X-X-5-5-X-X-X-X-|

SOLO:

E------------------------------------------------------------|
B------------------------------------------------------------|
G---------14-12----------------------------------------------|
D--14b~~--------14-12----12----14b~-------------------12b~~--|
A---------------------15----15------15-12----12-15-12--------|
E-----------------------------------------15-----------------|

E-------------------------------------------------------------------------|
B-------------------------------------------------------------------------|
G---------------------------------------13-11-----------------------------|
D-----------12----13br-12----12---------------13-11----------------9----9-|
A--12----12----15---------15----15-12~~-------------13b-11-9-10-11---11---|
E-----15------------------------------------------------------------------|

E------------------------------------------------------------------------|
B------------------------------------------------------------------------|
G------------11-----11-------12-10---------------------------------------|
D--11-9-11b-----11b----11r\--------12-10---------------8----8-12-10-8----|
A----------------------------------------12b-10-8-9-10---10-----------10-|
E------------------------------------------------------------------------|

E---------------------------------------------|
B---------------------------------------------|
G--11-9----------------10-8-------------------|
D-------11-9----------------10-8-----------9--|
A------------11b-9-8-9-----------10b-8-7-8-7--|
E------------------------------------------0--|

Repeat intro, end on:

E----------|
B----------|
G----------|
D--12-12\--|
A--12-12\--|
E--10-10\--|

-------------------------------------------------
THE BUTTHOLE SURFERS GUITAR/BASS TAB ARCHIVE:
http://www.islandnet.com/~mustang/1401/index.html
-------------------------------------------------