Tag: scorpions

A Moment In A Million Years chords – Scorpions

 Intro:       F Dm   
      |--------------------------8---7---5---8---7---5----------------------|  
      |------------------5---6---------------------------9------------------|  
      |-----4------------------------------------------------7--------------|  
      |-----3---------------------------------------------------------------|  
      |-----3---------------------------------------------------------------|  
      |-----1---------------------------------------------------------------|  

  
 Dm Am   
The lights are slowly fading down 
 F   
There's no one else, just you and me 
 E   
Nothing ever changed 
 Dm Am   
I see your faces in the crowd 
 F   
It seems I know each one of you 
 E   
For all my life 
 F   
I wish this night could last forever 
 F G   
But it's time to go 

 Dm Am   
I saw you laugh, I saw you cry 
 F   
All for one and one for all 
 E   
Nothing ever changed 
 Dm Am   
The way you sang just blew my mind 
 F   
It gave me chills from head to toe 
 E   
What a glorious night 
 F   
I wish this night could last forever 
 F G   
But it's time to go 

               G# Bb   
A moment in a million years 
 Bb Cm   
Is all I've got for you 
               G# Bb   
A moment in a million years 
 Bb Cm   
To make some dreams come true 
                 G# Bb   
A moment that I won't forget 
 Bb Cm   
Until the day I die 
               G# G   
A moment in a million years 
        Cm   
Called life 

 
 Dm Am    
The bus is waiting right outside  
 F 
To hit the road and once again  
 E 
I leave you all behind  
 Dm Am   
I chase another dream tonight  
 F 
And by the time you'll be home  
 E 
I'll be far away  
 F 
I wish this night could last forever  
 F G 
But it's time to go 

               G# Bb   
A moment in a million years 
 Bb Cm   
Is all I've got for you 
               G# Bb   
A moment in a million years 
 Bb Cm   
To make some dreams come true 
                 G# Bb   
A moment that I won't forget 
 Bb Cm   
Until the day I die 
               G# G   
A moment in a million years 
        Cm   
Called life 


 G# Bb Cm 
    Yeah
 G# Bb Cm 
    Oh, Yeah

                 G# Bb   
A moment that I won't forget 
 Bb Cm   
Until the day I die 
               G# G   
A moment in a million years 
        Cm   
Called life

---------------------
Thanks to JLS Org.© 2013 to chordify the song.

Dancing With The Moonlight chords – Scorpions

 From MTV Unplugged.

Please rate/comment/correct. =)

Capo on 3rd fret for original tuning.


Intro: |  Am Am Am Am  |  F G Am Am  |
       |  Am Am Am Am  |  F G Am Am  |

 Am 
  Rock the place, getting on the plane.
 C 
  Thunder and lightning on the way.
 G Am 
  The cabin crew told us to relax, yeah.

 Am 
  Perfect time for a birthday bash.
 C 
  Ed threw a party and we all crashed,
 G Am 
  long before we were taking off to nowhere.


  Am 
Dancing with the moonlight.
  Am 
Should have been an easy flight.
      F G Am 
But once in the air, half way there, we went down.
  Am 
Dancing with the moonlight.
  Am 
Destination out of sight.
        F G Am 
And before we arrived, we went back on the ground.


 Am 
  We came to a stop and refuelled the plane.
 C 
  I tried my vodka and cheap champagne.
 G Am 
  The stewardess looking so much better.

 Am 
  Back in the air around mid-day,
 C 
  we were finally on our way.
 G Am 
  One hour flight, but this one took forever.


  Am 
Dancing with the moonlight.
  Am 
Should have been an easy flight.
      F G Am 
But once in the air, half way there, we went down.
  Am 
Dancing with the moonlight.
  Am 
Destination out of sight.
        F G Am 
And before we arrived, we went back on the ground.


 E G F  
      I want it.
 E G F 
      I need it.
 E G F 
      I love it.
 E G F  
      I want it.
 E G F 
      I need it.
 E G F 
      I love it.
 E G F E 
      I want it.


|  Am Am Am Am  |  F G Am Am  |
|  Am Am Am Am  |  F G Am Am  |
|  Am Am C C   |  G G Am Am  |


          Am 
We were dancing with the moonlight.
  Am 
Should have been an easy flight.
      F G Am 
But once in the air, half way there, we went down.
  Am 
Dancing with the moonlight.
  Am 
Destination out of sight.
        F G Am 
And before we arrived, we went back on the ground.

          Am Am   |  F G Am Am  |
We were dancing with the moonlight.
          Am Am  |
We were dancing with the moonlight.
        F G Am 
And before we arrived, we went back on the ground.
          Am 
We were dancing with the moonlight.

END

Fly To The Rainbow Tabs by Scorpions V2

 Author/Artist: SCORPIONS
Title: fly to the rainbow (Music :Michael Schenker /Lyrics:Ulrich Roth)
 fly to the rainbow
: Jonas Aklestad



INTRO (RIFF 0): classical guitar, finger picking
--0h2------2--0--------3--------2---------------------------------------------|
-----3----------2---2----3---3----3---3--------3-------------5----------------|
-------2----------2--------0--------2--------3---3---------5---5--------------|
---0-------0--------------------0----------3-------3-----5-------5------------|
--------------4--------2-----------------1-------------3----------------------|
------------------------------------------------------------------------------|
  D           A/C#     G/B      D        Bb            C

-2-----3------2-----2---------------------------------------------------------|
---3-----3------3-----3-------------------------------------------------------|
-----2-----2------2-----2-----------------------------------------------------|
-0-----0------0-----0---------------------------------------------------------|
------------------------------------------------------------------------------|
------------------------------------------------------------------------------|
 D

RIFF 1 (verse, 2 times) "Life is empty, can't remember...."

---------2-----------0------------3-------------------------------------------|
-------3---3-------2---2--------3---3----------2------------3-----------5-----|
-----2-------2---2-------2----0-------0------2---2--------3---3--------5--5---|
---0---------------------------------------2-------2----3-------3----5------5-|
---------------4------------2------------0------------1-------------3---------|
------------------------------------------------------------------------------|
  D            A/C#         G/B          A            Bb            C

-2-----3-----2----2-----------------------------------------------------------|
---3-----3----3-----3---------------------------------------------------------|
-----2-----2----2-----2-------------------------------------------------------|
-0-----0-----0----0-----------------------------------------------------------|
------------------------------------------------------------------------------|
------------------------------------------------------------------------------|
 D


RIFF 2 "Gliding through this life..."

----------------------------------------------------|-------------------------|
---------1------------0-----------3-----------3-----|-------1------------0----|
-------0---0--------0---0-------3---3-------3---3---|-----0---0--------0--0---|
-----2-------2----0-------0---0-------0---0-------0-|---2-------2----0------0-|
---3------------2-----------1-----------1-----------|-3------------2----------|
----------------------------------------------------|-------------------------|
   C            G/B         Bb                        C            G/B

-----------------------------|------------------------------------------------|
----------3-----------3------|-------1-----------0-----------1----------3-----|
--------3---3-------3---3----|-----0---0-------0---0-------0---0------3--3----|
------0-------0---0-------0--|---2-------2---0-------0---2-------2--0------0--|
----1-----------1------------|-3-----------2-----------3-----------1----------|
-----------------------------|------------------------------------------------|
    Bb                         C           G/B         C           Bb

---------------------------------------------------|--------------------------|
--------1-----------0-----------1------------2-----|--------------------------|
------0---0-------0---0-------0---0--------2---2---|--------------------------|
----2-------2---0-------0---2-------2----2-------2-|--------------------------|
--3-----------2-----------3------------0-----------|--------------------------|
---------------------------------------------------|-------

Humanity chords – Scorpions

 Capo on the 4th Fret
chord changes are noted by the capital letters

lead in

 Am Dm G E Am F 
Humanity, auf wiedersehen, it's time to Say goodbye
                                     Dm G E 
The party's over as the Laughter dies an Angel Cries
 Am F Dm 
Humanity, it's au revoir to your inSanity, you sold your soul to feed your Vanity, 
         G E Am 
your FanitiSies and Lies,
              Am 
you're a Drop in the rain just a number not a name
                       Dm 
and you don't See it, you don't believe it
           Am 
at the End of the day, you're a needle in the hay
                         Dm 
you signed and Sealed it and now you gotta deal with it
 F G 
HumaniTy
 F G 
HumaniTy
          Am Em Am Em 
goodBye
         Am Em Am Am 
goodBye
      Am F Dm Em 
be On your way, adios amigo there's a Price to pay, for all the egotistic Games you Played
       G E Am 
the World you Made, is Gone
              Am 
you're a Drop in the rain just a number not a name
                       Dm 
and you don't See it, you don't believe it
           Am 
at the End of the day, you're a needle in the hay
                         Dm 
you signed and Sealed it and now you gotta deal with it
 F G 
HumaniTy
 F G 
HumaniTy
          Am Em Am Em 
goodBye
         Am Em Am Am 
goodBye
 Am Dm G E 
Run and hide, there's fire in the sky, Stay inside, the water's gonna Rise and Pull you under
 Am Dm G E 
In your eyes, i'm staring at the End of time, nothing can Change us, no one can Save us from 
      F 
ourSelves

Solo

 Am F Dm E Am Am 
you're a Drop in the rain just a number not a name
                       Dm 
and you don't See it, you don't believe it
           Am 
at the End of the day, you're a needle in the hay
                         Dm 
you signed and Sealed it and now you gotta deal with it
 F G 
HumaniTy
 F G 
HumaniTy
 F G 
HumaniTy
          Am Em Am Em 
goodBye
          Am Em Am Em 
goodBye
          Am Em Am Em 
goodBye
         Am Em Am Am 
goodBye

They Need A Million Tabs by Scorpions V2

 -------------------------------------------------------------------------------
                        THEY NEED A MILLION - Scorpions
-------------------------------------------------------------------------------

: JackMule
 PlayingSongs@hotmail.com

Editor Notes: The tempo changes a few times up until Verse 3, so listen to the
              song to get a feel for the pacing.

              In some verses/choruses/solos I've placed (a) reference(s) to
              what's supposed to be played. You can find whatever I've
              referenced near the bottom of this page. I did this to declutter
              the tab and to show you what you actually have to learn, rather
              than showing you the same sections multiple times.

              Use the solo sections to figure out what notes Uli's playing, but
              you'll have to listen to the solos if you want to figure out
              exactly how he does the vibratos and bends. The same goes with
              other lead parts.

Tuning: Half-Step Down


Intro:

Time Signature: 4/4


e|---------0-------|---------0-------|---------0-------|---------7-------|
B|-----0-------0---|-----0-------0---|-----0-------0---|-----5-------5---|
G|---5---5---5---5-|---5---5---5---5-|---4---4---4---4-|---4---4---4---4-|
D|-----------------|-7---------------|-5---------------|-5---------------|
A|-0---------------|-----------------|-----------------|-----------------|
E|-----------------|-----------------|-----------------|-----------------|

e|---------0-------|---------5-------|---------0-------|---------0-------|
B|-----0-------0---|-----3-------3---|-----0-------0---|-----1-------1---|
G|---2---2---2---2-|---2---2---2---2-|---1---1---1---1-|---2---2---2---2-|
D|-3---------------|-3---------------|-2---------------|-3---------------|
A|-----------------|-----------------|-----------------|-----------------|
E|-----------------|-----------------|-----------------|-----------------|

                    | - 3 - | | - 3 - | | - 3 - | | - 3 - |
e|---------0-------|-------0---------0---------0---------0-|
B|-----0-------0---|----0---------0---------0---------0----|
G|---1---1---1---1-|---------------------------------------|
D|-2---------------|-2---------0---------------------------|
A|-----------------|---------------------3---------2-------|
E|-----------------|---------------------------------------|


Verse 1:


{

e|---------0-------|---------0-------|---------0-------|---------0-------|
B|-----0-------0---|-----0-------0---|-----0-------0---|-----0-------0---|
G|---5---5---5---5-|---5---5---5---5-|---5---5---5---5-|---5---5---5---5-|
D|-----------------|-7---------------|-----------------|-7---------------|
A|-0---------------|-----------------|-0---------------|-----------------|
E|-----------------|-----------------|-----------------|-----------------|

e|---------0-------|---------7-------|---------0-------|---------7-------|
B|-----0-------0---|-----5-------5---|-----0-------0---|-----5-------5---|
G|---4---4---4---4-|---4---4---4---4-|---4---4---4---4-|---4---4---4---4-|
D|-5---------------|-5---------------|-5---------------|-5---------------|
A|-----------------|-----------------|-----------------|-----------------|
E|-----------------|-----------------|-----------------|-----------------|

e|---------0-------|---------5-------|---------0-------|---------5-------|
B|-----0-------0---|-----3-------3---|-----0-------0---|-----3-------3---|
G|---2---2---2---2-|---2---2---2---2-|---2---2---2---2-|---2---2---2---2-|
D|-3---------------|-3---------------|-3---------------|-3---------------|
A|-----------------|-----------------|-----------------|-----------------|
E|-----------------|-----------------|-----------------|-----------------|

e|---------0-------|---------0-------|---------0-------|
B|-----0-------0---|-----0-------0

Yellow Raven chords – Scorpions V2

 Am Dm
The yellow raven-sipped the air
 Dm E
Of thunder and of-rain ...
 Am Dm
The yellow raven-sipped the air
 Am E
Gentle eyes kissing the-rain ...

 E Dm Am
Where do you-go, fantastic-dreambird?
 Dm Am
Take me away to-somewhere
 F E
Take me away from-here!
 E Dm Am
Where do you-go, fantastic-dreambird?
 Dm Am
Answer to my-yearning
 F E
Take me away from-here!



The firebird began to cry
When the music died away ...
The firebird began to cry
And smoke was slowly drifting by ...

Where do you go, fantastic dreambird?
Take me away to somewhere
Take me away from here!
Where do you go, fantastic dreambird?
Answer to my yearning
Take me away from here ...

SOLO:


E||----------------------------------------||
B||----------------------------------------||
G||----------------------------------------||
D||-5----0-2-3--3-5-3-2--------------------||
A||--5-5----------------0--0-0-3-5--5-7-5-3||
E||3--6------------------------------------||


E||----------------------------------------||
B||----------------------------------------||
G||----------------------------------------||
D||------------------2-3-2-3-2-3-----------||
A||----------------------------------------||
E||5--5-3-1--1-1-1-0-----------------------||

                  (x2)




e||----------------------------------------||
B||----------------------------------------||
G||----------------------------------------||
D||-5----0-2-3--3-5-3-2--------------------||
A||--5-5----------------0--0-0-3-5--5-7-5-3||
E||3--6------------------------------------||


e||----------------------------------------||
B||----------------------------------------||
G||----------------------------------------||
D||------------------2-3-6-7-6-2-----------||
A||----------------------------------------||
E||5--5-3-1--1-1-1-0-----------------------||

                   (x2)