Tag: Second Time

Tanks chords – Lets Wrestle

 Lets Wrestle - Tanks
'In The Court Of Wrestling Lets'

: OllietheRocker

Tuning: Standard!

Intro (palm mute power chords then switch to open barre chords on the second time through,
 also on the second time through play the first chord pattern twice rather than changing to Em)

    C Bm F  
e|---------------------------------------------------------------------------|
B|---------------------------------------------------------------------------|
G|-5--5--5--5--5--5--5--5--5--5--5--5--5--5--4--4----------------------------|
D|-5--5--5--5--5--5--5--5--5--5--5--5--5--5--4--4--3--3--3--3--3--3--3--3--3-|
A|-3--3--3--3--3--3--3--3--3--3--3--3--3--3--2--2--3--3--3--3--3--3--3--3--3-|
E|-X--X--X--X--X--X--X--X--X--X--X--X--X--X--X--X--1--1--1--1--1--1--1--1--1-|

             Dm C Em F 
e|---------------------------------------------------------------------------|
B|---------------------------------------------------------------------------|
G|----------7--7--5--5--5--5--5--5--5--5--5--5--5--5--5--5--9--9-------------|
D|-3--3--3--7--7--5--5--5--5--5--5--5--5--5--5--5--5--5--5--9--9--3--3--3--3-|
A|-3--3--3--5--5--3--3--3--3--3--3--3--3--3--3--3--3--3--3--7--7--3--3--3--3-|
E|-1--1--1--X--X--X--X--X--X--X--X--X--X--X--X--X--X--X--X--X--X--1--1--1--1-|

e|---------------------------------------------------------------------------|
B|---------------------------------------------------------------------------|
G|---------------------------------------------------------------------------|
D|-3--3--3--3--3--3--3--3--3--3----------------------------------------------|
A|-3--3--3--3--3--3--3--3--3--3----------------------------------------------|
E|-1--1--1--1--1--1--1--1--1--1----------------------------------------------|


or think of it as, 2 downward strums per beat, 7 beats on C, 1 beat on Bm, 7 on F 
and then 1 beat on Dm etc.

Verse 1
 C Am Dm  
My belief is that we fight and we bleed,
           Am Dm               
And never find what we need to carry on
 C Am Dm 
And my belief is that we lie in the dirt,
               Am Dm C 
And can't get rid of all this hurt and carry on

Chorus
 Em G 
Not a squadron of tanks,
 G C 
Or soldiers of different ranks could save us!
 Em G 
Not a fleet of policemen or,
 G C 
faith or religion could give me the guts to talk to you again

Verse 2
 C Am Dm 
why don't you stop wasting your time,
                   Am Dm 
because I've been wasting my time for far too long.
 C Am Dm 
and when you realize what you have done,
            Am Dm C       
I hope you come and find me and say that you were wrong

Chorus
 Em G 
Not a squadron of tanks,
 G C 
Or soldiers of different ranks could save us!
 Em G 
Not a fleet of policemen or,
 G C 
faith or religion could give me the guts to talk to you again

Bridge
 C Bm F Dm               
oh, oh oh, oh ohhhhh, oooh
 C G F Dm 
oooh hoh-ohoh      ooooh
 C Bm F Dm 
oh, oh oh, oh ohhhhh, oooh
 C G F Dm  
hoh-hoho, oh, oh oooh

 C C 

Chorus
 Em G 
Not a squadron of tanks,
 G C 
Or soldier

Gator Blood Tabs by Mark Knopfler V2

 -------------------------------------------------------------------------------
                             Gator Blood - Mark Knopfler
-------------------------------------------------------------------------------
:Alex


I didn't include every little thing, but it should be easy to figure out with the parts 
I've put here.

Tuning:Open G - DBDBGD - Capo 3rd fret

First time
D|----3---5---------------------3---5----------------|
B|-/3---3-------3/1----------/3---3------------------|
G|-------------------3-0----------------3P0-------0--|
D|------------------------------------------3P0H3----|
G|---------------------------------------------------|
D|---------------------------------------------------|

Second time
D|----3---5---------------------3---5----------------|
B|-/3---3-------3/1----------/3---3------------------|
G|-------------------3-0----------------3P0----------|
D|------------------------------------------3P0-0----|
G|---------------------------------------------------|
D|---------------------------------------------------|
   Riff1        Riff2                   Riff 3

  Rhythm Parts
D|---------------------0-----------------------------------------------------|
B|----0--0--0----------0-----------------------------------------------------|
G|----0--3--0----------0-----------------------------------------------------|
D|----0--0--0----------------------------------------------------------------|
G|-0--------------------------------0-000000-3br0-0-0------------------------|
D|---------------------------------------------------------------------------|
   Pre-verse       During verse     "Swallowed all the
   Repeat it       Before fills      fishes in the frying pan"

      ^ ^ ^ v ^ v          C
D|----3-3-3-3-3-3------------------------------------------------------------|
B|-/3-3-3-3-3-3-3----------1-------------------------------------------------|
G|-------------------------0----------------------------3~~~~~~~~~~~---------|
D|-------------------------2-------------------------------------------------|
G|-------------------------3-------------------------------------------------|
D|---------------------------------------------------------------------------|
  "Blood...."          "Gator Blood"                  "I got gator blood"
                        Play is a couple of times      After this go into the pre-verse

Hammer on a skillet(Riff 1) up they come(Riff 2)
Showman whanging(Riff 1) on a ballyhoo drum(Riff 3)
Watch out(Riff 1), people I'm a greedy man(Riff 2)
Swallowed all the fishes in the frying pan
Blood, gator blood, I got gator blood

Chicken on a hotplate gobbledegook
Come on up, honey and take a look
Mighty fine weather this time of year
Shake a tail feather you chicken you hear
Blood, gator blood, I got gator blood
(Do intro part two here)

Chicken on a hotplate it's gonna dance
Gonna lose these chickens my first chance
Don't you know I'm a flim flam man
A chicken show it ain't worth a damn
Gator blood, I got gator blood

Solo(Played with a slide)
D|--13/15-15-15-15-15-15-15-X3-----------------------------------------------|
B|---------------------------------------------------------------------------|
G|--------------------------------THEN------------3BSLOW---------------------|
D|---------------------------------------------------------------------------|
G|---------------------------------------------------------------------------|
D|---------------------------------------------------------------------------|

I got a country boy, he's a bird who sings
Butter paddle, buck 'n wing
Kid's got a winner bonafide hit
I'm gonna have my dinner on a spit
Blood, gator blood, I got gator blood

Hoopla, humbug, howdy-do
Gonna make you into chicken stew
Alligator in the mud
Don't you know I got gator blood
Gator blood, I got gator blood
(Solo again)

Never lend a dollar to your good friend Tom

I Dont Owe You Anything Tabs by Smiths V3

 -------------------------------------------------------------------------------
                            I DONT OWE YOU ANYTHING - The Smiths
-------------------------------------------------------------------------------
: OrangeTrousers

Tuning: Standard with Capo on 2nd Fret


INTRO
e|-----3-----3-----|-----5-----5-----|-----5-----5-----|-----5-----5-----|
B|-----5-----5-----|-----5-----7-----|-----7-----7-----|-----7-----7-----|
G|-----4-----4-----|-----6-----6-----|-----6-----6-----|-----6-----6-----|
D|-----5-----5-----|-----7-----7-----|-----7-----7-----|-----7-----7-----|
A|-----3-----3-----|-----0-----0-----|-----5-----5-----|-----5-----5-----|
E|-----------------|-----------------|-----------------|-----------------|
   ^   ^   ^   ^     ^   ^   ^   ^     ^   ^   ^   ^     ^   ^   ^   ^

VERSE
e||-----5-----5-----|-----5-----5-----|-----5-----5-----|-----5-----------|
B||-----7-----7-----|-----7-----7-----|-----7-----7-----|-----7-----------|
G||-----6-----6-----|-----6-----6-----|-----6-----6-----|-----6-----------|
D||-----7-----7-----|-----7-----7-----|-----7-----7-----|-----7---0-------|
A||-----5-----5-----|-----5-----5-----|-----5-----5-----|-----5-------0---|
E||-----------------|-----------------|-----------------|-----------------|
    ^   ^   ^   ^     ^   ^   ^   ^     ^   ^   ^   ^     ^   ^   ^   ^
                                     |First Time                    Repeat
e|-----------------|-------0---------|-----5-----5-----|-----5-----5-----||
B|-----0-----3--/5-|-----------0-----|-----7-----7-----|-----7-----7-----||
G|---------0-------|-------------6---|-----6-----6-----|-----6-----6-----||
D|-------4---------|-----7---7-----7-|-----7-----7-----|-----7-----7-----||
A|---5---------0---|---0-------------|-----5-----5-----|-----5-----5-----||
E|-3---------------|-----------------|-----------------|-----------------||
   ^   ^   ^   ^     ^   ^   ^   ^     ^   ^   ^   ^     ^   ^   ^   ^

 |Second Time                     ...Bridge
e|-----5-----5-----|-----5-----------|-----------------|-------0---------|
B|-----7-----7-----|-----7-----------|-----0-----3--/5-|-----------0-----|
G|-----6-----6-----|-----6-----------|---------0-------|-------------6---|
D|-----7-----7-----|-----7---0-------|-------4---------|-----7---7-----7-|
A|-----5-----5-----|-----5-------0---|---5---------0---|---0-------------|
E|-----------------|-----------------|-3---------------|-----------------|
   ^   ^   ^   ^     ^   ^   ^   ^     ^   ^   ^   ^     ^   ^   ^   ^

e|-----5-----5-----|-----5---5---4---|-----3-----3-----|-----5-----5-----|
B|-----7-----7-----|-----7---7---6---|-----5-----5-----|-----5-----7-----|
G|-----6-----6-----|-----6---6---5---|-----4-----4-----|-----6-----6-----|
D|-----7-----7-----|-----7---7---6---|-----5-----5-----|-----7-----7-----|
A|-----5-----5-----|-----5---5---4---|-----3-----3-----|-----0-----0-----|
E|-----------------|-----------------|-----------------|-----------------|
   ^   ^   ^   ^     ^   ^   ^   ^     ^   ^   ^   ^     ^   ^   ^   ^

e||-----5-----5-----|-----5---5---4---|-----0-----------|-----------------||
B||-----7-----7-----|-----7---7---6---|-----------0-----|-----0-----0-----||
G||-----6-----6-----|-----6---6---5---|---------------4-|/6-----------6---||
D||-----7-----7-----|-----7---7---6---|---5-----5-------|---7---7-------7-|| x2
A||-----5-----5-----|-----5---5---4---|-3-----3-----3---|-----------------||
E||-----------------|-----------------|-----------------|-----------------||
    ^   ^   ^   ^     ^   ^   ^   ^     ^   ^   ^   ^     ^   ^   ^   ^

e|-----------------|-----------------|-----3-----3-----|-----5-----5-----|
B|-----3-----2-----|-----3-----2-----|-----5-----5-----|-----5-----7-----|
G|---------------4-|---------------2-|-----4-----4-----|-----6-----6-----|
D|---4-----4-------|---4-----4-------|-----5-----5-----|-----7-----7-----|
A|-2-----2-----2---|-2-----2-----2---|-----3-

Corpus Christi Bay Chords – Robert Earl Keen Jr V2

 Here is a great Robert Earl Keen Jr. song off his A Bigger Piece of Sky
Album

Corpus Christi Bay
by Robert Earl Keen Jr.

Capo on 3rd fret

 G C G 
I worked the rigs from three Ttil midnight
 G C 
On the Corpus Christi Bay
 C G 
IUd get off and drink Ttil daylight
 G D 
Sleep the mornin away
 D C G 
I had a plan to take my wages
 G C 
Leave the rigs behind for good
 C G D 
But that life it is contagious
 D G 
And it gets down in your blood


 G C G 
I lived in Corpus with my brother
 G C 
We were always on the run
 C G 
We were bad for one another
 G D 
But we were good at having fun
 D C G 
We got stoned along the seawall
 G C 
We got drunk and rolled a car
 C G D 
We knew the girls at every dancehall
 D G 
Had a tab at every bar


Chorus:
 G D C 
If I could live my life all over
 C G 
It wouldnUt matter anyway
 G C D 
TCause I never could stay sober
 D G 
On the Corpus Christi Bay


 G C G 
My brother had a wife and family
 G C 
You know he gave Tem a good home
 C G 
But his wife thought we were crazy
 G D 
And one day we found her gone
 D C G 
We threw here clothes into the car trunk
 G C 
Her photographs her rosary
 C G D 
We went to the pier and got drunk
 D G 
And threw it all into the sea

CHORUS
 G D C 
If I could live my life all over
 C G 
It wouldnUt matter anyway
 G C D 
TCause I never could stay sober
 D G 
On the Corpus Christi Bay


 G C G 
Now my brother lives in Houston
 G C 
He married for the second time
 C G 
He got a job with the union
 G D 
And it's keeping him in line
 D C G 
He came to Corpus just this weekend
 G C 
It was good to see him here
 C G D 
He said he finally gave up drinkinU
 D G 
Then he ordered me a beer

CHORUS (TWICE)
 G D C 
If I could live my life all over
 C G 
It wouldnUt matter anyway
 G C D 
TCause I never could stay sober
 D G 
On the Corpus Christi Bay
 G D C 
If I could live my life all over
 C G 
It wouldnUt matter anyway
 G C D 
TCause I never could stay sober
 D G 
On the Corpus Christi Bay

Sacred Shapes Tabs by Arcane Roots

 Intro
E|------------------------------------|
B|------------------------------------|
G|-*4---------------4--------4--------|  *Slide up second time
D|------------------------------------|x2
A|------------------------------------|
E|----2--3--0-0--0---2-3--0----3-2----|

E|---------------------------7-0-----|
B|----5----------------------8-8-8---|
G|----5----------------------9-9-8---|
D|-----------------------------------|
A|--x-3--2--0-1-2--------------------|
E|----------------0-2-3--0-----------|

E|------------------------------------|
B|------------------------------------|
G|-*4--------------4--------4---------|  *Pinched harmonic second time
D|------------------------------------|x2
A|------------------------------------|
E|----2--3--0-0--0---2-3--0----3-2----|

E|----------------------7------------|
B|----------------------8--8---------|
G|-5----2--3--4---------9--8~--------|
D|-5----2--3--4----------------------|
A|-3--2-0--1--2--4-5-----------------|
E|---------------2-3-0---------------|

Verse
E|----------------------------------------------------------7-7-7-7--|
B|----------------------------------------------------------8-8-8-8--|
G|----------------------------------------------------------9-9-9-9--|
D|-------------------------------------------------------------------|
A|------------------------------------------7-7-7-7-6-6-6-6----------|
E|--0--0-2-2-3--0---0-2-2-3--0--0-2-2-3~-0---------------------------|

E|--------------------------------------------------|
B|--------------------------------------------------|
G|--------------------------------------------------|
D|--------------------------------------------------|
A|------------------------------------------7---6---|
E|--0--0-2-2-3--0---0-2-2-3~-0--0-2-2-3--0----------|

E|-------------------------------------------------------------------------|
B|---8-8-8-8-8--10--10--11-7---10--10--11-7---7-7-7--7--8--8-8-8-8-8-8-8---|
G|---9-9-9-9-9--11--11--12-8---11--11--12-8---8-8-8--8--9--9-9-9-9-9-9-9---|
D|-------------------------------------------------------------------------|
A|---7-7-7-7-7--9---9---10-6---9---9---10-6---6-6-6--6--7--7-7-7-7-7-7-7---|
E|-------------------------------------------------------------------------|

E|-------------------------------------------------------|
B|-------------------------------------------------------|
G|-------------------------------------------------------|
D|-------------------------------------------------------|
A|-----------------------------------------------7---6---|
E|-3-2-0---0-2-2-3--0---0-2-2-3~-0--0-2-2-3--0-----------|

Pre-Chorus
E|-----------------------------------|
B|-----------------------------------|
G|-4--------------4--------4---------|
D|-----------------------------------|
A|-----------------------------------|
E|---2--3--0-0--0---2-3--0----3-2----|

E|-------------------------------|
B|--5----------3------7----------|
G|--5----------4------8----------|
D|--7----------5------9----------|
A|--7----------5------9----------|
E|--5----------3------7----------|

E|-----------------------------------|
B|-----------------------------------|
G|-4--------------4--------4---------|
D|-----------------------------------|
A|-----------------------------------|
E|---2--3--0-0--0---2-3--0----3-2-0--|

(Listen for strumming Pattern)
E|------------------------------------------|
B|------------------------------------------|
G|---9-------12----11-----9-----8-----------|
D|---x-------x-----x------x-----x-----------|
A|---7-------10----9------7-----7-----------|
E|---8-------12----10-----8-----7--/--11----|

Second Verse
E|----------------------------------------------------------|
B|----------------------------------------------------------|
G|----------------------------------------------------------|
D|----------------------------------------------------------|
A|--7-----------------------------------------

Hell And Back Tabs by Tonight Alive

 Hell and back almost perfect sorry if theres any errors im doing this late at night 
DROP D TUNING!!
Enjoy! :)

Verse Rhythm
Too tired to write this properly. x=repeat so follow that and the second time through is quieter.
e|-------------------------------------------------------------------|x2
B|-------------------------------------------------------------------|x2
G|-----5--x4------5---x2------5---------5----------------------------|x2
D|---3----x4----3-----x2----3-----3---3------------------------------|x2
A|-3------x4--1-------x2--3-----3---1--------------------------------|x2
D|-------------------------------------------------------------------|x2

Verse Lead
On the second time through of the verse rhythm, lead plays this. You have to work out
how many times each note is played.
e|---------------------------------------------------------------|
B|-10--11--13--8----11--8-8h10-10--8-----------------------------|
G|---------------------------------------------------------------|
D|---------------------------------------------------------------|
A|---------------------------------------------------------------|
D|---------------------------------------------------------------|

Chorus Rhythm
e|---------------------------------------------------------------|
B|---------------------------------------------------------------|
G|-3--------5-x2-------------------------------------------------|
D|-3--3--0--5-x2-------------------------------------------------|
A|-1--3--0--3-x2-------------------------------------------------|
D|----3--0----x2-------------------------------------------------|

Chorus Lead
Play the first bit 3 times and end on next except for the second time round
e|----------------------13--------------------------- ---------------|x2
B|---10----x3----10--------------------------------------------------|x2
G|-7----10-x3--7----10-----------------------------------------------|x2
D|-------------------------------------------------------------------|x2
A|-------------------------------------------------------------------|x2

Bit after chorus Rhythm
e|-------------------------------------------------------------------|x2
B|-------------------------------------------------------------------|x2
G|-3-----5-----------------------------------------------------------|x2
D|-3--0--5-----------------------------------------------------------|x2
A|-1--0--3-----------------------------------------------------------|x2
D|----0--------------------------------------------------------------|x2

Bit after chorus Lead
you have to work out the strumming
e|-------------------------------------------------------------------|x2
B|-------------------------------------------------------------------|x2
G|-14--15--17--14--14--15--17--14--12--10--9-------------------------|x2
G|-------------------------------------------------------------------|x2
A|-12--13--15--12--12--13--15--12--10--8---7-------------------------|x2
D|-------------------------------------------------------------------|x2

Verse 2 Lead
You have to work out how many times each note is played.
e|--------------------------------------------------------------------|
B|-10--11--13--8----8--13--8-10-11s13-10--8---------------------------|
G|---------------10---------------------------------------------------|
D|--------------------------------------------------------------------|
A|--------------------------------------------------------------------|
D|--------------------------------------------------------------------|

Prechorus Lead
ALL PALM MUTED!!! Fairly quick but not to hard to play :)
e|----------------------------------------------------------------------|
B|-----------10------x4------------------10------x4-------10x8----------|
G|------8-10----10-8-x4--10x16------8-10----10-8-x4--10x8---------------|
D|-8-10--------------x4--------8-10--------------x4---------------------|
A|-------------------

Lonely Fortunes Chords – Ha Ha Tonka

 INTRO CHORDS

 G G C G C G G  

FIRST VERSE
  
 G C Bm C 
Lonely fortunes fall,   down at our bare feet,
                       Bm G 
But there are cracks in the concrete
   G C Bm C 
Our tired eyes can see, so much more clearly,
 Bm G 
So-ooo clearly


CHORUS

  C Bm                
That we're never gonna have much,
  C Bm G 
Myself, I'd take such as a compliment
  C Bm 
We can blame it on our circumstances
  C Bm G 
Oh at least we took the chances we had to

 C C G 


SECOND VERSE

  G C Bm C 
I'm so sorry I,   I forgot myself
    Bm G 
I should have asked for help
  G C Bm C 
You say that's ok and that you know we've got it made
          Bm G G 
So I know we've got it made


CHORUS x2 (with more intensity the second time)

  C G 
But we're never gonna have much,
  C Bm G 
Myself, I'd take such as a compliment
  C Bm 
We can blame it on our circumstances
  C Bm G 
Oh at least we took the chances we had to


BRIDGE

  C Bm 
La la da de da de da
  C Bm 
Oh de da de da
  G                                
La de da de dum dum
  C Bm 
La la da de da de da
  C Bm 
Oh de da de da
  G 
La de da de dum dum
  G 
La de da de dum dum

 C Bm G G 


FINAL CHORUS

  C Bm                
That we're never gonna have much,
  C Bm G 
Myself, I'd take such as a compliment
  C Bm 
We can blame it on our circumstances
  C Bm G  (once, let ring)
Oh at least we took the chances we had to

On The Roof Chords – Johan Lindell

 The Mystery New Wave song, solved after 11 years.
Link to artist page:
http://www.johanlindell.se/


Starts on D

VERSE 1

 Dm Am 
Up on the roof I go
 G Bb 
Sit and drink my wine
 Dm Am 
People running down the row
 G Bb 
I wanna feel the cool winds blow
 Dm Am 
Killing time up here
 G Bb 
Just me and the empty sky
 Dm Am 
Trying to sort things out
 G Bb 
About what happened the other night

 Dm Am G Bb Dm Am 
Woman you're on your own
 G Bb 
I knew this had to come
 Dm Am 
Now your walking out my door
 G Bb      
Calling a cab on the way you go

 Bb/D Bb C 
Sitting on a rooftop
 Bb C Bb/D    
Talking to a blue sky
 Bb C Bb/D 
Drinking on a rooftop
 Bb 
Listen to my heart go, don't go, don't go
               C 
Listen to my mind go



 Fm Fm/Eb Bbm Db 
Stay, the second time around            Won't you please
 Fm Fm/Eb Bbm Db 
Stay, the second time around            Darling won't you please 
 Fm Fm/Eb Bbm Db 
Stay, the second time around            Ah please 
 Fm Fm/Eb Bbm Db 
Stay, the second time around

 Gm/C 

VERSE 2

 Dm Am 
Watching the girls go by
 G Bb 
Like a string of pearls in the crowd
 Dm Am 
Hey you with the long black hair
 G Bb 
I've got some wine to share


Guitar Solo over Verse Chords 2x


 Bb/D Bb C 
Sitting on a rooftop
 Bb C Bb/D    
Talking to a blue sky
 Bb C Bb/D 
Drinking on a rooftop
 Bb 
Listen to my heart go, don't go, don't go
               C 
Listen to my mind go

 Fm Fm/Eb Bbm Db 
Stay, the second time around         Won't you please
 Fm Fm/Eb Bbm Db 
Stay, the second time around          Darling won't you please 
 Fm Fm/Eb Bbm Db 
Stay, the second time around          Won't you
 Fm Fm/Eb Bbm Db Eb 
Stay, the second time around         

Outro
 Ab Db  (x4)

Now Its On Chords – Grandaddy

 GRANDADDY - NOW IT'S ON
by realexkav

Standard Tuning

               E 
Now that the 'K' is in place
            C# 
Where the 'C' used to be
                   A 
It seems that I'm ceasing to be
        E 
In the season of the old me

I wouldn't trade my place
I got no reason to be
Weathered and withering
Like in the season of the old me

 A E 
 Bust the lock off the front door
Once you're outside you won't want to hide anymore
Light the light on the front porch
Once it's on you'll never want to turn it off anymore

              F# 
And now it's on,

   F#  run
e|-----------------|
B|----------2---5--|
G|--3---3---3---3--|
D|--4---4---4---2--|
A|--4---1---4---4--|
E|--2---2---2---2--|

           A E  ( Emaj7 )
now it's on

If you wanna play the melody with the chords, you could do it like that:


   A E Emaj7 E 
e---------------------------------------------------0-0-0-0-0-0-0--|
b-2---2---5---5-5---4---2-2---0---------------------0-0-0-0-0-0-0--|
G-2---2---2---2-2---2---2-2---2---1---1---1-1-1-1---1-1-1-1-1-1-1--|
D-2---2---2---2-2---2---2-2---2---2---2---2-2-2-1---1-1-1-1-2-2-2--|
A-0---0---0---0-0---0---0-0---0---2---2---2-2-2-2---2-2-2-2-2-2-2--|
E---------------------------------0---0---0-0-0-0---0-0-0-0-0-0-0--|

   A E Emaj7 E 
e---------------------------------0---0-0-0--0--0---0-0-0-0-0-0-0--|
b-2---2---5---5-5---4---2-2---0-2-0---0-0-0--0--1---0-0-0-0-0-0-0--|
G-2---2---2---2-2---2---2-2---2-2-1---1-1-1--1--1---1-1-1-1-1-1-1--|
D-2---2---2---2-2---2---2-2---2-2-2---2-4-2--2--1---1-1-1-1-2-2-2--|
A-0---0---0---0-0---0---0-0---0-0-2---2-2-2--2--2---2-2-2-2-2-2-2--|
E---------------------------------0---0-0-0--0--0---0-0-0-0-0-0-0--|

second time without the last Emaj7

Now that the lake's in place
Where the dead sea used to be
It seems that I'm ceasing to be
In the season of the old me

I wouldn't trade my place
I got no reason to be
Weathered and withering
Like in the season of the old me

Bust the lock off the front door
Once you're outside you won't want to hide anymore
Light the light on the front porch
Once it's on you'll never want to turn it off anymore
              A E Emaj7 E 
And now it's on..

Bright Lights Acoustic Chords – Alex Goot V2

 Artist: Alex Goot
Song: Bright Lights Acoustic

INTRO

  Asus2 Bsus4 C#m7 Bsus4 
|:  /    /    /    /   |  /    /    /    /   |  /   /   /   /  |   /    /    /    /  :|

    E E Bsus4 C#m7 C#m7 Bsus4 
|:  /    /    /    /   |   /    /    /    /   |   /    /    /    /  |   /    /    /    /  :|

 Asus2                                  
Never mind, never mind things are good again,
 Bsus4 C#m7 Bsus4 Asus2 
I took the time, in my life, to figure  it    out,
 Asus2 Bsus4               
And I wont let, I can’t let, real life bring me down, down, down,

                Asus2 C#m7 Bsus4 
‘Cause I could ru – uh-uh-uh-un
 C#m7 Bsus4 Asus2 C#m7 Bsus4            
Across the   wo –oh -oh- oh- orld

                            A 
And everywhere I go,
   E 
I see my name in bright lights,
 B C#m7 Bsus4 Asus2                 
If I keep it up I know that I    could   fly,
   E Bsus4 
I feel like it’s a good life,
            Bsus4 C#m7 Bsus4 Asus2 C#m7 Bsus4                     
And when I feel it most I feel like I   could   fl-uh-uh-uh-uy
 C#m7 Bsus4 Asus2 C#m7 Bsus4            
  I       could   fl-uh-uh-uh-uy
Yeah

(Repeat All Chords)

I get away, get away, when I need it most
‘Cos I could find, I could find, myself outta time
Of the shapes and the lines that I draw in my mind, mind, mind,

I’ve got to run,
Before its too late,

And everywhere I go,
I see my name in bright lights,
If I keep it up I know that I could fly,
I feel like it’s a good life,
And when I feel it most I feel like I could fly,
I could fly,
Yeah

Bright lights in my eyes for the first time, (I watch you burn up in your atmosphere)
Bright lights in my eyes for the second time, (I watch you burn up in your atmosphere)

And everywhere I go,
I see my name in bright lights,
If I keep it up I know that I could fly,
I feel like it’s a good life,
And when I feel it most I feel like
Everywhere I go,
I see my name in bright lights,
If I keep it up I know that I could fly,
I feel like it’s a good life,
And when I feel it most (oh I feel it most)
Yeah I feel it most,
I feel like I could fly,
I could fly,
Yeah

END

+--------------------------------------------------------------------------+
| This file is the author's own work and represents their interpretation   |
| of the song. You may only use this file for private study, scholarship,  |
| or research.                                                             |
+--------------------------------------------------------------------------+

Ultimate-Guitar.Com © 2013

Bach Partita In Dm Tabs by Paul Gilbert

 -------------------------------------------------------------------------------
                                        BACH PARTITA IN Dm - Paul Gilbert
-------------------------------------------------------------------------------

Tabbed by: JackMule
E-mail: PlayingSongs@hotmail.com

Editor Notes:
        Vibratos and palm mutes are not shown. Some hammer-ons and pull-offs might be missing
or put in where they shouldn't be. It's difficult to decide whether Paul doing them or not
at some points in the song. Do whatever feels easiest, although for the most part this
tab is accurate.

Tuning: Standard


Intro:


e|-0----------------|------------------|-----------------0--0--0-------------|
B|-0----------------|------------------|-----------------0--0--0-------------|
G|-1----------------|------------------|-----------------1--1--1-------------|
D|-2----------------|------------------|-----------------2--2--2-------------|
A|-2----------------|------------------|-----------------2--2--2-------------|
E|-0----------------|------------------|--------------0--0--0--0-------------|


Chorus:


{(Second time through has less of a pause in between the larger gaps of notes.)
e|-------------------------13------15-13-------------------------------------|
B|-----------------15--17------17--------17-15-14----------------------17----|
G|-14----------14----------------------------------14--------------14--------|
D|---------15------------------------------------------14------14------------|
A|-----17--------------------------------------------------16----------------|
E|---------------------------------------------------------------------------|

e|-15--13--17-15-13----------------------------------------------------------|
B|------------------17-15----------------------------------------18-17-15-18-|
G|--------------------------14-----------------------------------------------|
D|-------------------------------15------------------------------------------|
A|------------------------------------17-------------------------------------|
E|---------------------------------------------------------------------------|

e|-18-17-15----------------------------17-15-13------------------------------|
B|----------18-17-15-13-15-17-15-13-17----------17-15-13-11-13-15-13-11-15---|
G|---------------------------------------------------------------------------|
D|---------------------------------------------------------------------------|
A|---------------------------------------------------------------------------|
E|---------------------------------------------------------------------------|

e|-15-13-12-------------------------12---------------------------------------|
B|----------15-14-12----12-14----14----15-14-12------------------------------|
G|-------------------14-------14----------------14-12----14-12---------------|
D|----------------------------------------------------15-------15-14-12------|
A|----------------------------------------------------------------------12---|
E|---------------------------------------------------------------------------|

e|---------------------------------------------------------------------12-13-|
B|-15--14--------------------------------------------------------13-15-------|
G|------------------------------------------------------12-14-15-------------|
D|---------12-------------------------------------14-15----------------------|
A|---------------------------------------------------------------------------|
E|---------------------------------------------------------------------------|

e|-15p12-------------------------------------------------------12-13-15------|
B|-------13----------13----------------------------------13-15---------------|
G|----------12----12----12----------12-14-12----12-14-15---------------------|
D|-------------14----------14----14----------15------------------------------|
A|----------------------------15------------

Das Uhrwerk intro Tabs by We Butter The Bread With Butter

 Drop C Tuning

This part is tremolo.
Guitar 1 
Guitar 2 comes in second time
[0:02]-[0:28]
|----------------------------------------------------------------|
|----------------------------------------------------------------|
|----------------------------------------------------------------|
|--6------6-4-2-4-7------7-6-4-2-6------2-4-6-6-4-------4-6-7-6--|
|----4--------------0-----------------------------2--------------|
|----------------------------------2-----------------------------|
|
|x2

Dance In The Fire Tabs by Digital Summer

 Digital Summer is a kick ass band!
This Tab was learned by ear so there are possible errors, but it sounds 100% correct.

Tuning: Drop A# or DropBb
Notes: A# F A# D# G C

I'm a fingerless guitarist, check out my youtube: xXkoleon5Xx

Key:

h - Hammer on
* - Palm Mute
s - Slide

Lets get onto the song...


                      (Intro/Chorus)
C-------------------------------------------------------------|
G-------------------------------------------------------------|
D#------------------------------------------------------------|
A#---5-5-5-5---5--5s7-7-7-7--7s9--9-9-9-----------------------|
F----5-5-5-5---5--5s7-7-7-7--7s9--9-9-9-----------------------|
A#---5-5-5-5---5--5s7-7-7-7--7s9--9-9-9-999999999999----------|
                                        ************

C-------------------------------------------------------------|
G-------------------------------------------------------------|
D#------------------------------------------------------------|
A#---5-5-5-5---5--5s7-7-7-7--7--------------------------------|
F----5-5-5-5---5--5s7-7-7-7--7--------------------------------|
A#---5-5-5-5---5--5s7-7-7-7--7--99999999999999999-------------|
                                *****************

                          (Verse)
C-------------------------------------------------------------| X2
G-------------------------------------------------------------|
D#------------------------------------------------------------|
A#---9*9*9*9*-7h9-----9*9*9*9*-7h9---5-5-5-7-7-7--------------|
F----9*9*9*9*-7h9-----9*9*9*9*-7h9---5-5-5-7-7-7--------------|
A#---9*9*9*9*-7h9-----9*9*9*9*-7h9---5-5-5-7-7-7--------------|


                        (Pre-Chorus)
 "on second time, just play an open on the 7th fret instead of palm mutes"
C-------------------------------------------------------------| X2
G-------------------------------------------------------------|
D#------------------------------------------------------------|
A#--2-2-2-2---2-2-2-2---5-5-5-5---7-7-7-7---------------------|
F---2-2-2-2---2-2-2-2---5-5-5-5---7-7-7-7---------------------|
A#--2-2-2-2---2-2-2-2---5-5-5-5---7-7-7-7---------------------|
    * * * *   * * * *   * * * *   * * * *


                         (Chorus)   X2
C-------------------------------------------------------------|
G-------------------------------------------------------------|
D#------------------------------------------------------------|
A#---5-5-5-5---5--5s7-7-7-7--7s9--9-9-9-----------------------|
F----5-5-5-5---5--5s7-7-7-7--7s9--9-9-9-----------------------|
A#---5-5-5-5---5--5s7-7-7-7--7s9--9-9-9-999999999999----------|
                                        ************

C-------------------------------------------------------------|
G-------------------------------------------------------------|
D#------------------------------------------------------------|
A#---5-5-5-5---5--5s7-7-7-7--7s9--9-9-9-----------------------|
F----5-5-5-5---5--5s7-7-7-7--7s9--9-9-9-----------------------|
A#---5-5-5-5---5--5s7-7-7-7--7s9--9-9-9-999999999999----------|
                                        ************

C-------------------------------------------------------------|
G-------------------------------------------------------------|
D#------------------------------------------------------------|
A#---5-5-5-5---5--5s7-7-7-7--7--------------------------------|
F----5-5-5-5---5--5s7-7-7-7--7--------------------------------|
A#---5-5-5-5---5--5s7-7-7-7--7--99999999999999999-------------|
                                *****************
(PLAY VERSE, PRE-CHORUS, AND CHORUS ALL THROUGH AGAIN)


                        (Bridge)
C-------------------------------------------------------------| X2
G-------------------------------------------------------------|
D#------------------------------------------------------------|
A#--0---0-0-0---0-0-2---2-2-2---2-2-2-------------------------|
F---0---0-0-0---0-0-2---2

A Love Like War Tabs by All Time Low V3

 -----------------------------------------------------------------------------
                            "A Love like War" All Time Low Feat. Vic Fuentes
-----------------------------------------------------------------------------
Tabbed by: Schmidtington
E-mail:

Tuning:Db, Ab, Db, Gb, Bb, Eb

Intro and Verse:

|---------------------------------------------------------------------------|
|----------------------------2------------------------------2---------------|
|---6666---7---------------2-------4444---6----------------2----------------|
|---XXXX---X----2\\------4---------XXXX---X-----4\\\-----4------------------|
|---4444---5----2\\----------------2222---4-----4\\\------------------------|
|---------------2\\-----------------------------4\\\------------------------|

Chorus (chord progression)
        Db        C         Bb      Eb       F         Ab       
|-------5---------4---------2-----------------------------------------------|
|-------5---------4---------2-----------------------------------------------|
|-------7---------6---------4-----------------------------------------------|
|-------7---------6---------4--------2-------4----------7-------------------|
|-------5---------4---------2--------2-------4----------7-------------------|
|------------------------------------2-------4----------7-------------------|

Post Chorus ("We go together")

|----5555--5-----------------4444--4----------------------------------------|
|----5555--5-----------------4444--4----------------------------------------|
|----7777--7-----------------6666--6----------------------------------------|
|----7777--7---2-xxx--xxx----6666--6---4xxx--xxx----------------------------|
|----5555--5---2-xxx--xxx----4444--4---4xxx--xxx----------------------------|
|--------------2-xxx--xxx--------------4xxx--xxx----------------------------|

(X2)(Second time let last chord ring)

Interlude(Chord Progression)
          Db           C               Bb            Eb       F       Ab
|---------5---------4---------2-------7-------------------------------------|
|---------5---------4---------2-------7-------------------------------------|
|---------7---------6---------4-------9-------------------------------------|
|---------7---------6---------4-------9--------4-------7777---7777----------|
|---------5---------4---------2-------7--------4-------7777---7777----------|
|----------------------------------------------4-------7777---7777----------|

Pick first 4 Chords of interlude



************************************

| /   slide up
| \   slide down
| h   hammer-on
| p   pull-off
| ~   vibrato
| +   harmonic
| x   Mute note
| b   Bend
| pb  Pre-bend
| br  Bend release
| pbr Pre-bend release
| brb Bend release bend

************************************

Rain Chords – Jaye Liubinskas

 intro:  F Gm Dm F Gm Dm 

Verse 1:
 F Gm Dm 
You are Lord Almighty and You are good
           F Gm Dm 
Where You are is lovely For You are good
         Bm C Dm 
My soul yearns, it faints to be near Your courts x2


Chorus:
 F C Dm Bm 
For You oh God are our sun and our shield
 F Gm Dm C F 
We are all, all and only for You, only for you
(Second time go to chorus 2)

Verse 2:
 F Gm Dm 
You've revived our spirits, You're our endless spring
         Bm C Dm 
With Your living water, we won't thirst again

Like a flood, The heavens open up x2

Chorus:
 F C Dm Bm 
For You oh God, are our sun and our shield
 F Gm Dm   
We are all, all and only for You
 F C Dm Bm 
Breathe on us, Your mercy and grace
 F Gm Dm        
We long, we long only for You, only for You

Instrumental:  C F Dm Bb C Dm 

Bridge:
 Bb C F Dm Bb C Dm    
We long and we wait, for Your glory to fall like rain
 Bb C F Dm Bb C Dm   
We long and we wait, for Your presence to come like rain

Bridge 2:
           Bb C 
Come like rain, come like rain
        F Dm 
Pour into our hearts again
           Bb C 
Come like rain, come like rain
          Dm 
Come like rain

Minor Thing Tabs by Red Hot Chili Peppers V5

 U-up stroke
D-down stroke

Intro and Verse:
   F#m7                        C#m D             Dmaj7
   D   D  UD D DUD DUD D DUDUDUD   D   D  UD D DUD DUD D DUDUDUDUDU
e|-0---0--00-0-xx0-xx0-0-x00xxx9-|-------------xx9-xx9-9-99x7777777-|
B|-2---2--22-2-xx2-xx2-2-x22xxx9-|-7---7--77-7-xx7-xx7-7-77x7777777-|
G|-2---2--22-2-xx2-xx2-2-x22xxx9-|-7---7--77-7-xx7-xx7-7-77x7777777-|
D|-4---4--44-4-xx4-xx4-4-x44xxx--|-7---7--77-7----------------------|
A|-4---4--44-4-xx4-xx4-4-x44xxx--|-5---5--55-5----------------------|
E|-x---x--xx-x-xxx-xxx-x-xxxxxx--|----------------------------------|
   '   '   '   '   '   '   '   '   '   '   '   '   '   '   '   '

And then, after "he knows everything":
   A                E   Dmaj7
   D   D   U  D  DU D   D   D  U   D   D
e|------------------12--14--14-14--14--14-|
B|-14--14--14-14-xx-12--14--14-14--14--14-|
G|-14--14--14-14-xx-13--14--14-14--14--14-| x2
D|-14--14--14-14-xx-14--12--12-12--12--12-|
A|-0---0---0--0--xx-----------------------|
E|----------------------------------------|

"You got your big part":
    (just go U D repeatedly)
e|--14-14-14-14-14-14-14-14-14-14-14-14-14-14-14-14-14-14-14-14-14-14-14-14-17-17-17-17-19-19-19-19--|
B|--14-14-14-14-14-14-14-14-14-14-14-14-14-14-14-14-14-14-14-14-14-14-14-14-17-17-17-17-19-19-19-19--|
G|--14-14-14-14-14-14-14-14-14-14-14-14-14-14-14-14-14-14-14-14-14-14-14-14-16-16-16-16-18-18-18-18--|
D|---------------------------------------------------------------------------------------------------|
A|---------------------------------------------------------------------------------------------------|
E|---------------------------------------------------------------------------------------------------|
In the second time, add this, then repeat both lines again:

e|--14-14-14-14-14-14-14-14-14-14-14-14-14-14-14-14-14-14-14-14-14-14-14-14-17-17-17-17-16-16-16-16--|
B|--14-14-14-14-14-14-14-14-14-14-14-14-14-14-14-14-14-14-14-14-14-14-14-14-17-17-17-17-17-17-17-17--|
G|--14-14-14-14-14-14-14-14-14-14-14-14-14-14-14-14-14-14-14-14-14-14-14-14-16-16-16-16-16-16-16-16--|
D|---------------------------------------------------------------------------------------------------|
A|---------------------------------------------------------------------------------------------------|
E|---------------------------------------------------------------------------------------------------|


Solo:
e|-12b14------12--9--12--------------------------------------12-------------|
B|-----------------------------------------14-------------14----------------|
G|----------------------11b13--r11---11-11----13b14r13-11-------13b14r13-11-|
D|--------------------------------------------------------------------------|
A|--------------------------------------------------------------------------|
E|--------------------------------------------------------------------------|

e|--------------------------------------------------------------------------|
B|-14-----------------------------------------------------------------------|
G|----13b14r13-11-11/13-9-11------------------------------------------------|
D|---------------------------11-11------------------------------------------|
A|--------------------------------------------------------------------------|
E|--------------------------------------------------------------------------|


Outro (repeat twice):
                  (just strum this chord a lot after every phrase)
e|------------0----------16-16-16-16-16-16----------------0-----------------|
B|----------0----7-------14-14-14-14-14-14--------------0-------------------|
G|--4-----4--------6-----14-14-14-14-14-14-------4----4------6b7-6----------|
D|--------------------------------------------------------------------------|
A|--------------------------------------------------------------------------|
E|--------------------------------------------------------------------------|

e|------------0-----------------------

Pompeii Tabs by Bears Den V2

 ---------------------------------------------------------------------------
                             Pompeii - Bear's Den
---------------------------------------------------------------------------
Tabbed by: Joe C

Tuning: Standard capo 9

Amazing song by Bear's Den from their hidden EP. The Bass notes can be seen as the four
beats in a bar.



Intro/Chorus riff
-Play the first note on the second fret of the G string in each 4 bass-note phrase as a
hammer-on. It is played normally the second time
-Listen to the song to get what I mean as well as the general rhythm

   1   2   3   4   1   2   3   4   1   2   3   4   1   2   3   4
e|-----------------------------------------------------------------|
B|--------0---------------0---------------0---------------0--------|
G|----0-2----2---0----0-2----2---0----0-2----2---0----0-2----2---0-|
D|---0---0-----------2---2-----------0---0-----------2---2---------|
A|-----------------0---0---0---0----2--------------3---3---3---3---|
E|-3---3---3---3-------------------0---0---0---0-------------------|

Verse riff:
-For 2nd last open note on the G string, keep your finger on the 2nd fret of the G
string from the last note of the G string, and play the open note as a pull-off for the 
G and
Am chords, and also play the first note of the 2nd fret of the G string as a hammer-on 
(Same as the intro/chorus but only for the G and Am chords)
-It's quite confusing but listen closely for the ryhthm - Can be difficult to hear over
the singer and banjo)

   1   2   3   4   1   2   3   4   1   2   3   4   1   2   3   4
e|-----------------------------------------------------------------|
B|--------0---------------0----------------------------------------|
G|----0-2---2-0--0----0-2---2-0--0----0----0--0-------0-0--0--0-0--|
D|---0---0---0--0----2---2---2--2----0--0----0--0----2---2---2---2-|
A|-----------------0---0---0---0----2----2-------2-3---3---3---3---|
E|-3---3---3---3-------------------0---0---0---0-------------------|

Pre-Chorus/ final chorus chords:
-Single strum for the pre-chorus chords.

   1   2   3   4   1   2   3   4   1   2   3   4   1   2   3   4   (X2)
e|-X---------------X---------------X---------------X-------------|
B|-0---------------0---------------0---------------1-------------|
G|-0---------------2---------------0---------------0-------------|
D|-0---------------2---------------2---------------2-------------|
A|-2---------------0---------------2---------------3-------------|
E|-3-------------------------------0-----------------------------|

-Constant strumming of the same chords for the loud final chorus after the banjo solo.

Structure:
Intro/chorus riff x1
Verse riff x2
Intro/chorus riff x1
Verse riff x2
Chorus/intro riff x4
Verse riff x2
Chorus/intro riff x1
Pre-chorus chords(8 bars)
Banjo solo/guitar comes in (8 bars)
Pre-chorus chords for the rest of the song

Don't forget to rate :)
-Joe

Aint It Fun Tabs by Paramore V3

 Since no one seems to have the tab right i sounded it out and i'm 99% sure this is correct.
This is my first tab so sorry if i made any mistakes. Please correct me if i did.

(the tabs kept stuffing up so sorry if its really messy it isn't me)

you may need to listen to the song to get the rhythm and find when there are pauses
but it shouldn't be to hard to figure out

intro:
E|-------------|     |-----------------|
B|-------------|     |-----------------|
G|-------------|     |-----------------|
D|--------9h11-| X4  |--------9h11-11--|
A|--11-7-------|     |--11-7-----------|
D|-------------|     |-----------------|

verse:                                                            (listen for pauses)

----------------------------|--------------------------------------|--------------------|-------------|
----------------------------|--------------------------------------|--------------------|-------------|
------------------------(x3)|---------------------------9----------|--------------------|-------------|
--------9h11--------9h7-----|--------9h11---------9h11----11-9h11|--------9h11-(x13)--|--------9h11-11|
--11-7---------11-7---------|--11-7---------11-7------------------|--11-7-------------|--11-7---------|
----------------------------|--------------------------------------|--------------------|-------------|

chorus:

----------------|-------------|------------|
----------------|-------------|------------|
----------------|-------------|------------|
--7-7-7-7-7-7-7|--11-11-11-11|--2-2-2-2----| X4
--7-7-7-7-7-7-7|--11-11-11-11|--2-2-2-2----|
--7-7-7-7-7-7-7|--11-11-11-11|--2-2-2-2----|

lead over chorus: (this happens when you play 7 the second time round in the chorus)

---------------------------------|
---------------------------------|
--15-15-12--15-15-10--10h12-8----|
---------------------------------|
---------------------------------|
---------------------------------|


verse:
----------------------------|--------------------------------------|--------------------|
----------------------------|--------------------------------------|--------------------|
------------------------ (x3)|---------------------------9----------|-------------------|
--------9h11--------9h7-----|--------9h11---------9h11----11-9h11|--------9h11--(x5-----|
--11-7---------11-7---------|--11-7---------11-7------------------|--11-7---------------|
----------------------------|--------------------------------------|--------------------|

---------------------9|--------------|-----------------|
--------------9-------|--------------|-----------------|
----------------11-9--|-----------(x6)|----------------|
--------9h11----------|--------9h11-|-------9h11-11----|
--11-7----------------|--11-7-------|--11-7------------|
-----------------------|-------------|-----------------|

chorus:

----------------|-------------|------------|
----------------|-------------|------------|
----------------|-------------|------------|
--7-7-7-7-7-7-7|--11-11-11-11|--2-2-2-2----| X8
--7-7-7-7-7-7-7|--11-11-11-11|--2-2-2-2----|
--7-7-7-7-7-7-7|--11-11-11-11|--2-2-2-2----|

lead over chorus: (this happens when you play 7 the second time round in the chorus)

---------------------------------|
---------------------------------|
--15-15-12--15-15-10--10h12-8----|
---------------------------------|
---------------------------------|
---------------------------------|

bridge: (palmuted)

------------------|        | -----------------------------------|-------------------------------|
------------------|        |-----------------------------------|--------------------------------|
------------------|        |--3-3-3-3-3-3-3-3-3-3-3-3-3-3-3-3-|---------------------------------|
--2-2-2-2-2-2-2-2| repeat  |--3-3-3-3-3-3-3-3-3-3-3-3-3-3-3-3-|--2-2-2-2-2-2-2-2-2-2-2-2-2-2-2-2|
--2-2-2-2-2-2-2-2| 6 times |--1-1-1-1-1-1-1-1-1-1-1-1-1-1-1-1-|--2-2-2-2-2-2-2-2-2-2-2-2-2-2-2-2|
--2-2-2-

Right Here In July Tabs by Al Bairre

 So, this is my first tab guys, although I think this is right, if you have any
corrections to do, please send them to me: levi-ag@hotmail.com

Al Bairre is a relatively new band, this is a cool song and it's definitely fun to play.

INTRO:


e---------------------------------------|
B---------------------------------------|
G-------------------------9-------------|
D----11-----9-11-----9-11---11--11t-9---|
A--9-----12-------12--------------------|
E---------------------------------------|

t=treble

The first guitar plays this riff four times.
The fifth time the second guitar plays Fm




E---9---9------9---9---9---|
B---10--10-----10--10--10--|
G---11--11-----11--11--11--|
D---11--11-----11--11--11--|
A---9---9------9---9---9---|
E---9---9------9---9---9---|


The chorus goes without guitars...


Right after "...christmas right in July..."

It's Fm again, listen to the song and you'll get the strumming right


Ok, so the bridge part goes something like this, I think:


e---------------------------|---------------------------|
B---------------------------|---------------------------|
G---------------------------|---------------------------|
D--7-------7-9-9t-7-----7---|--7-------7-9-9t-----------|
A----9-7-9----------9-7-----|----9-7-9--------9-7-12t---|
E---------------------------|---------------------------|



It ends with the same riff as in the intro, but the second time it ends sooner:

e---------------------------------------|--------------------------------|
B---------------------------------------|--------------------------------|
G-------------------------9-------------|--------------------------9-----|
D----11-----9-11-----9-11---11--11t-9---|----11-----9-11-----9-11----11--|
A--9-----12-------12--------------------|--9-----12-------12-------------|
E---------------------------------------|--------------------------------|




ENJOY!


I hope this is right, comments or corrections to levi-ag@hotmail.com




You can check out other Al Bairre songs here:



http://www.last.fm/music/Al+Bairre

Weekend Tabs by Last Dinosaurs

 LAST DINOSAURS - WEEKEND

NO CAPO / STANDARD TUNING

For The Solo Guitar Part.. Thing Check This Link:
http://tabs.ultimate-guitar.com/l/last_dinosaurs/weekend_intro_tab.htm


Intro Chords.. Yeh
e---------------------------------------------------------|
B--8-8-8-8-8--8--8--8--8--8--8--8--8--8--8--6--6--6--6--6-|
G--8-8-8-8-8--8--8--8--8--8--7--7--7--7--7--7--7--7--7--7-|
D--8-8-8-8-8-10-10-10-10-10--8--8--8--8--8--8--8--8--8--8-|
A---------------------------------------------------------|
E---------------------------------------------------------|

Or Just The Intro Chords, No Powerchords :)

D#/Eb      Cm     Gm      A#/Bbm

e-6       e-8     e-3      e-6-|
B-8       B-8     B-3      B-6-|
G-8       G-8     G-3      G-6-|
D-8       D-10    D-5      D-8-|
A-6       A-10    A-5      A-8-|
E-x       E-8     E-3      E-6-|


VERSES
 G/Ab  A/Bb  Mystery Chord(MC)    Fm
e-4    e-6       e-6           e-1-|
B-4    B-6       B-6           B-1-|
G-5    G-7       G-7           G-1-|
D-6    D-8       D-8           D-3-|
A-6    A-8       A-6           A-3-|
E-4    E-6       E-x           E-1-|


PRE CHORUS
                      (Second Time)
G#/Ab  MC    A/Bb      Mystery Chord 2
e-4    e-6     e-6        e-8-|
B-4    B-6     B-6        B-8-|
G-5    G-7     G-7        G-8-|
D-6    D-8     D-8        D-6-|
A-6    A-6     A-8        A-6-|
E-4    E-x     E-6        E-x-|


Yeah. Updates On This Tab And A Cover Soon ;)

Thanks Bye!