Tag: Second Time

Helen Burns – Ace Troubleshooter Chords

Helen Burns
It's Never Enough
Ace Troubleshooter
2004 Tooth & Nail Records

I think it's about time for a tab from their new cd.

Intro
e--------------------------------------
B------9--------------------9~--9-9----
G----9---9-----11-9--9-9---------------
D----------9-9-------------------------
A--7-----------------------------------
E--------------------------------------

e--------------------------------------
B------9--------------------9~--12-9---
G----9---9-----11-9--9-9---------------
D----------9-9-------------------------
A--7-----------------------------------
E--------------------------------------

play that a few times... I'm too lazy to go get the cd and find out how many

Verse:
E   A   E   A Am
E   A   E   A   
 then intro
 then those chords again

Chorus:
E   A   E   A Am
E   A   E   A

then intro
then verse
then chorus

little interlude thing:
Guitar 1
e----------------------------
B----------------------------
G------4-----4------4-----4-- 
D--6-----6------6-----6------  over and over again throughout
A----7-----7------7-----7----
E----------------------------

Guitar 2
e---------------------------------------------
B---------------------------------------------
G---------------------------------------------
D--666666-7777--9--9-777777--9--9--9--9-11-11-  x2 but at the end of
A--777777-9999-11-11-999999-11-11-11-11-12-12- second time play an E octave
E--------------------------------------------- chord (three strums)

e---------------------------------------------
B---------------------------------------------
G--13-13-13-13-13-13-99-888-666666-88-999-----
D--x--x--x--x--x--x-xx-xxx-xxxxxx-xx-xxx------
A--11-11-11-11-11-11-77-666-444444-66-777-----
E---------------------------------------------

e--------------------------------------------
B--------------------------------------------
G--13-13-13-13-13-13-99-888-666666-999999----
D---x--x--x--x--x--x-xx-xxx-xxxxxx-xxxxxx----
A--11-11-11-11-11-11-77-666-444444-777777----
E--------------------------------------------

Bridge:
B   A   B   A

then chorus

then intro a bunch of times

from Ken
ha_thats_mildly_amusing

After You’re Gone – Blindside Chords

After You're Gone
Blindside
c2004 Elektra Records
Tabbed by: Trevor Kirch

Drop D tuning

Intro/Verses

G--------------7-
D--0/3\0-0/3\0---
A----------------several times
D----------------

The 1st time through the chorus there is no music, and
the second time it starts in the middle, then begins again.

Chorus

G----------------------5----7--10--7--10--10--5--10--5--7--10-
D--2-0-5-7-8--5--8--3--5--0-x--x---x--x---x---x---x--x--x--x--
A--2-0-5-7-8--5--8--3--3--0-5--8---5--8---8---3---8--3--5--8--
D--2-0-5-7-8--5--8--3-----0-----------------------------------

G----------------------5----
D--2-0-5-7-8--5--8--3--5--0-
A--2-0-5-7-8--5--8--3--3--0-
D--2-0-5-7-8--5--8--3-----0-

Solo

G------------------------------------
D----3---3---0---------3---5---3---0-
A--5---5---1---1--3--5---5---1---1---
D------------------------------------


I think that's about it. Listen to the cd to get the timing for the chorus.
Please rate this tab.

East from the West – Casting Crowns Chords

This is yet another great worship song.

East from the West
Casting Crowns
The Alter and the Door

Verse 1(No strumming)

Chorus 1 
F#m//////// E//////// Bm//////// D//// 

E//// x2 (Second time end on D)

Background for riff after chorus
F#m and E 2x(Eight beats for each chord)

Verse 2
D / / E / / F#m / / E / / x3

Immediatly after last E chord
F#m / / E / / D////////

Chorus

Bridge
A//////// C#m//////// F#m////////

D//////// 2x(Then jump into riff 
             background twice)

Chorus 2 
Pause after last beat of riff, then
play the first chorus with the A
chord first instead of F#m

Go into background riff until the end.

Great song with a powerful message!

Superman – Blindside Chords

Superman
Blindside
Blindside
Written by: Blindside
Tabbed by: Lance, Aaron and The Spidertone (Spidertone)
This song has a really weird rhythm, my drummer friend says that it is
in 14/7 (but i think he just counts funny), so i didn't put the rhythms
in here, listen to the cd and you should be able to figure it out for
yourself.
intro and verse:
e:-----------
b:-----------
g:-----------
d:--------------------------5h6p5------7------------------------5*--
a:-----------------5--7--------------7--------------------5--7------
E:----0-0--0----------------------------------0-0--0----------------
*When the distortion comes on there is a slight hesitation before this
note is played.
then the chorus of sorts goes like this:
e:-
b:-
g:-
d:---2---2-2---5---7--8---2---2-2--5---4---x-x------------
a:---2---2-2---5---7--8---2---2-2--5---4---x-x------------
E:---0---0-0---3---5--6---0---0-0--3---2---x-x------------
when it goes i'm no superman the guitar does this:
e:---------------------------------------
b:---------------------------------------
g:---------------------------------------
d:---2---2-2---5---7--8.....---10--8--7--
a:---2---2-2---5---7--8.....---10--8--7--
E:---0---0-0---3---5--6.....---8---6--5--
after the first time through the chorus play a couple harmonics on the
fifth fret, the play everything up to here, on the second time through
don't play the harmonics but go straight in to this:
e:-------
b:-------
g:-------
d:----2-2--x---2---2-2---x--------------------------------------
a:----2-2--x---2---2-2---x--------------------------------------
E:----0-0--x---0---0-0---x--------------------------------------
play that acouple times then play this, at a little slower pace:
e:-------
b:-------
g:-------
d:--2---2---3---------------------------------------------------
a:--2---2---3---------------------------------------------------
E:--0---0---1---------------------------------------------------
then play this a couple times:
e:-------
b:-------
g:----2--2------2--2--------------------------------------------
d:----2--2------2--2--------------------------------------------
a:----0--0------0--0--------------------------------------------
E:-----------0-----------0--------------------------------------
then play the next to last riff a couple times and end the song on an e.
there you have, blindside is awesome, but God is more so,
Walk on 

Slow Fade – Altered Chords

Slow Fade
The Altered
Curb Records 1997
Matt Atlas MrGuitarz


Note-I tabbed the solo first cause i was just going to do it, but then i
decided to throw some chords into the song, so i know they arent all correct,
these are just the basic chord style, its probably variations of these chords.
I also do not have the cd, just a demo tape and no words, so some of the words
are probably wrong, but I'm sure you will be able to get the idea.


Bass Riff: E|-0-1-2-3-0-1-2-3-5-6-6-6-5-6-6-6
                                
Intro:   A->Am->Am7->A  x4 After Second time start Bass Riff


Verse:          Bass Riff Throughout
       A       Am               Am7        A
         I can see the pain you feel
       A    Am         Am7         A
         Inside I'm always weak
    SAME PATTERN THROUGHOUT NEXT TWO LINES


Interlude: C->E->Em
           Cbar->E->Em
           C->E->Em


Verse:  Same as first, chord progression 4 times


Pre-Chorus:          C         F
              And it seems I'm Fine
                     C          D
              And it seems like I'm
                     C     F       E     F#
              Fading more into the day--------


Chorus #1:  E        B     F#    A
               Not today-----------  x4


Chorus #2:  F#  E         B     A     E
                    Not Today----------   x3


Pre Solo:  F#  E


Solo:
E|-------
B|-------
G|-------
D|12b13b12-12-12-13-14-15-14-13-12-12-12-11-11-11-10-10-10-9-9-9



E|------------------------------------------------------
B|------------------------------------------------------
G|------------------------------------------------------
D|--9-8-9-11-10-11-10--12b13b12-12-12-13-14-16-14-13-13-


E|-
B|-
G|-
D|-16-16-16-15-15-15-14-14-14-13-13-13--13-12-13-15-14-15-

E|-------------15-15-15-14-14-14-13-13-13-12-12-12-11-11-11-
B|---
G|-------12-12----------------------------------------------
D|-17-16----------------------------------------------------


E|-10-10-10-9-9-9-8-8-8----------------------------------
B|
G|
D|----------------------12b13b12-12-12-13-14-16-14-13-13-


E|-------
B|-------
G|-------
D|-16-16-16-15-15-15-14-14-14-13-13-13--13-12-13-15-14-15-14-12-

When I Remember – Blindside Chords

When I Remember
Blindside
Tuning: Drop D


D -3-----4-4----6-----1-------
A -1-----1-2----6-----1-------  x3
D --------------6-----1-------

Chorus:

G ---8-------
D ---x-------
A ---6-------


G -11--------10--------6-----------------
D --x--------x---------x--------6--------
A --9--------9---------4--------6--------
D ------------------------------6--------

( Repeat.
Chorus is played 4 times on the second time )


G ---3-3-3-3h4-3-1-3-6-6-6-4-3---------8-8-------
D --------------------------------8-8--8-8--8-8--
A --------------------------------6-6-------6-6--  x3
D -----------------------------------------------

E -----------------------------------------11-11-------
B-------------------------------------9-9--11-11--9-9--
G---3-3-3-3h4-3-1-3-6-6-6-4-3---------9-9---------9-9--

( Chorus )

G -------------------------------------------
D -3-------4-6--------6--9------6--11--------
A -1-------1-4--------6--x------6--x--------- x3
D --------------------6--9------6--11--------

G--13-(x8)-12-(x16)---15-(x8)---16--(x16)---15--(x16)--
D--x-------x----------x---------x------------x---------
A--11------10---------13--------14----------13---------

( Chorus )

G ---8-------
D ---x------- Play this once after the chorus, let it ring...
A ---6-------

It's quick to learn the strumming pattern. Just listen to the 
song a couple of times and play along with it. ^^

You can hide it – Blindside Chords

Blindside
You can hide it
Silence

Tuning: E flat (Eb Ab Db Gb Bb eb)

Verse

E------------------------------------------|
B------------------------------------------|
G------------------------------------------|
D---------------------12------------------|
A--4-----14-----14-----14-----15---15---14-----14-----14-----14-----15---12--------12---11---12---|
E----0-0----0-0----0-0----0-0----0----0----0-0----0-0----0-0----0-0----0----0----0----0----0----0-|

										First time
E----------------------|-------------------|
B----------------------|-------------------|
G----------------------|-------------------|
D----------------------|---------------9---|
A-11-----11-----11-----11-----12---12---11-----11-----11-----11-----12---12---|-12---11---7-------|
E----0-0----0-0----0-0----0-0----0----0----0-0----0-0----0-0----0-0----0----0-|----0----0---0---0-|

Last time 
E-------------------------|
B-------------------------|
G-11-11-14-14-13-13-11-11-|
D-x--x--x--x--x--x--x--x--|
A-9--9--12-12-11-11-9--9--|
E-------------------------|

Chorus
				   First time    Second time
E---------------------------------|-------------|-----------------|
B---------------------------------|-------------|-----------------|
G-5-5-5-5-5-5-5-5-5-5-5-5-5-5-5-5-|-------------|-----------------|
D-5-5-5-5-5-5-5-5-5-5-5-5-5-5-5-5-|-2-2---2--2~-|-2-2----5--7--2~-|
A-3-3-3-3-3-3-3-3-3-3-3-3-3-3-3-3-|-2-2---2--2~-|-2-2--2-5--7--2~-|
E---------------------------------|-0-0---0--0~-|-0-0--0-3--5--0~-|

Third time     Last time
E----------0~-|-----------------|
B----------0~-|-----------------|
G----------0~-|-----------------|
D-2-2---5--7~-|-2-2----5--7--2~-|
A-2-2---5--7~-|-2-2--2-5--7--2~-|
E-0-0---3--5~-|-0-0--0-3--5--0~-|

Repeat Verse and Chorus again

Bridge
			    1st time  2nd     3rd       4th
E--------------------------|---------|-------|---------|-------|
B--------------------------|---------|-------|---------|-------|
G---16---17---16---14---12-|-7--7-9~-|-7--5~-|-7--7-9~-|-7--5~-|
D---x----x----x----x----x--|-x--x-x--|-x--x--|-x--x-x--|-x--x--|
A---14---15---14---12---10-|-5--5-7~-|-5--3~-|-5--5-7~-|-5--3~-|
E-0----0----0----0----0----|---------|-------|---------|-------|

Outro Chorus
E-------------------------|
B-------------------------|
G-5-5---5-5---------------|
D-5-5---5-5---2-2---2--2~-|
A-3-3---3-3---2-2---2--2~-|
E-------------0-0---0--0~-|

E---------------------------------|-----------------|
B---------------------------------|-----------------|
G-5-5-5-5-5-5-5-5-5-5-5-5-5-5-5-5-|-----------------|
D-5-5-5-5-5-5-5-5-5-5-5-5-5-5-5-5-|-2-2----5--7--2~-|
A-3-3-3-3-3-3-3-3-3-3-3-3-3-3-3-3-|-2-2--2-5--7--2~-|
E---------------------------------|-0-0--0-3--5--0~-|

E----------0~-|-----------------|
B----------0~-|-----------------|
G----------0~-|-----------------|
D-2-2---5--7~-|-2-2----5--7--2~-|
A-2-2---5--7~-|-2-2--2-5--7--2~-|
E-0-0---3--5~-|-0-0--0-3--5--0~-|

E---------------------------------|-------------|-----------------|
B---------------------------------|-------------|-----------------|
G-5-5-5-5-5-5-5-5-5-5-5-5-5-5-5-5-|-------------|-----------------|
D-5-5-5-5-5-5-5-5-5-5-5-5-5-5-5-5-|-2-2---2--2~-|-2-2----5--7--2~-|
A-3-3-3-3-3-3-3-3-3-3-3-3-3-3-3-3-|-2-2---2--2~-|-2-2--2-5--7--2~-|
E---------------------------------|-0-0---0--0~-|-0-0--0-3--5--0~-|

E----------0~-|----------------|
B----------0~-|----------------|
G----------0~-|----------------|
D-2-2---5--7~-|-2-2---5--7--2~-|
A-2-2--

Dive – Steven Curtis Chapman Chords

****************************************
Dive
Steven Curtis Chapman
Speechless
Copyright: 1999 Sparrow Records
Tabbed by: Bradley Wilder (bradleywilder)
****************************************

Capo 1st fret, all tab and chords relative to capo.

riff 1
e-----3----1----2--
B-----3----1----3--
G-----4----2----2--
D-----5----2----0--
A-----5----3-------
E-----3----1-------

riff 2
e-----3----1----1--
B-----3----1----3--
G-----4----2----3--
D-----5----2----3--
A-----5----3----1--
E-----3----1----1--

Intro: riff 1 riff 2

Verse 1
(Bb)   C    Bb
C      Bb
C      D
riff 2
(Bb)   C    Bb
C      Bb
C      Bb
A      D

Chorus
A    Bm   G   D
A    Bm   G   D
A    Bm   G   D
A*   D      riff 1 riff 2 **

* Third time through play A first time and Bm the second time (listen to
the song to see what I mean).

** 2nd time play D A G 4x and Intro 2x

Echoes Of Eden – Steven Curtis Chapman Chords

echoes of eden
Tabbed by: johnny arias
Johnny_aria148


Intro:
Ab(add2) Abmaj9  Ab6/9  (REPEAT)


VERSE:
Ab(Add2)  Abmaj9  Ab6/9  Abmaj9  (REPEAT)
Bbm   Bbm/Ab   Eb13

[SAME THING ALL OVER AGAIN UTIL THE SECOND TIME Eb]

Ab(Add2)  

CHORUS:
Cm7   Fm11  Dbm11
Ab(Add2)  Cm7  Fm11  F7(Add4)  Bbm11  Ab/C  Dbm11  

REPEAT INTRO 1XONLY 
REPEAT VERSE AND CHORUS
REPEAT INTRO 2X
GO BAKCK TO SECOND PART OF THE VERSE(Bbm)
AT END OF CHORUS PLAY INTRO 3X UNTIL ENDING

(OPTIONAL) END ON Ab(Add2)

CHORDS*********************************************************************
Ab(Add2)     XX6546 -O- XX6540
Abmaj9       4X564X
Ab6/9        433344
Bbm          X13321
Bbm/Ab       XX6666
Eb13         X65667
Cm7          X35343
Fm11         X8X896
Dbm11        X52102 -O- X42422
F7(Add4)     111211
Bbm11        6X664X
Ab/C         X3654X


I KNOW ITS KINA HARD TO UNDERSTAD BUT I YOU HAVE ANY QUESTINS JUST E MAIL ME
THIS IS A REALLY NICE SONG 
  

Be Lifted Up – Paul Oakley Chords

Title :  Be Lifted Up
Artist : Paul Oakley
Album : re.vive01@Stoneleigh live

the Great One (i_am_so_18@yahoo.co.uk)
Please do not archive without permission :-)

This song has the makings of a truly amazing worship song. 
Its intimacy and truth for stoneleigh really has come across 
on the cd. I love it! These chords sound fine from the cd

Capo 2 (Chords in brackets signify chords without the capo

Verse 1:
D(E)
A(B)
G(A) A(B)
D(E)
      (repeat x4 first time and 
       x2 second time through 
       the song)

Chorus :
G(A) D(E)
G(A)
D(E)
G(A)
D(E)
A(B)

Bridge :
G(A) A(B) D(E)
G(A) A(B) D(E)

Boomdeahda – Plankeye Chords

Boomdeahda
Band: Plankeye
The One and Only 
 1997 Tooth and Nail Records
Tabbed by: Zach Henson 

***This is the secret song for the CD titled The One and Only. I am not
sure if that is how you spell the word, but it is close enough. 

Intro:
C-G-F-C x2

(On the second time when you play the G chord pull down on the B string
when you strum it)

Verse 1:
(C  G  C  F) x2   

Chorus:
(C  G  C  F) x2
 C           G          C           F
Boomdeahda Boomdeahda Boomdeahda Boomdeahda x2

Verse
Chorus x4

(I do not get the 3rd verse. I am just writing what I here. You'll
understand if you have the CD)

Verse
Chorus



***CHORDS***
C 032010
G 320033
F 003211


Really easy song. If you have any questions email me at zach25

The Only Thing Worse Than Beating A Dead Horse Is Betting On One – Relient K Chords

The Only Thing Worse Than Beating A Dead Horse Is Betting On One
Band: Relient K
Mmhmm

Tabbed by: Edi K. (email me at diami_11)

Tuning: (Eb-Ab-Db-Gb-Bb-Eb)

. = palm muted
~ = let ring


1st guitar
Eb|----------------------------------------------
Bb|----------------------------------------------
Gb|---9/11-11-11-11-11-11\9-9/11-11-11-11-11-11--	x6
Db|---x-x--x--x--x--x--x--x-x-x--x--x--x--x--x---
Ab|---7/9--9--9--9--9--9-\7-7/9--9--9--9--9--9---
Eb|----------------------------------------------


2nd guitar (comes in at the second time)
Eb|--------------------------------------------------
Bb|--------------------------------------------------
Gb|---13/14-14-14-14-14-14\13-13/14-14-14-14-14-14---	x1
Db|---xx-xx-xx-xx-xx-xx-xx-xx-xx-xx-xx-xx-xx-xx-xx---
Ab|---11/12-12-12-12-12-12\11-11/12-12-12-12-12-12---
Eb|--------------------------------------------------


2nd guitar
Eb|---------------------------------------------
Bb|---------------------------------------------
Gb|--------7-7-------4-----------7-7-------4-4-4
Db|---4-4--7-7--7-7--4--2---4-4--7-7--7-7--4-4-4
Ab|---4-4--5-5--7-7--2--2---4-4--5-5--7-7--2-2-2
Eb|---2-2-------5-5-----0---2-2-------5-5-------
					   .....

2nd guitar
Eb|-------------------------
Bb|-------------------------
Gb|--------7-7-------4------	x6
Db|---4-4--7-7--7-7--4--2---
Ab|---4-4--5-5--7-7--2--2---
Eb|---2-2-------5-5-----0---

Eb|-------------------------------------------------
Bb|-------------------------------------------------
Gb|---7-7-7-7-7-7-7-7-7-7\6-6-6-6/9-9-9-9-9-9-9-9---	x1
Db|---7-7-7-7-7-7-7-7-7-7\6-6-6-6/9-9-9-9-9-9-9-9---
Ab|---5-5-5-5-5-5-5-5-5-5\4-4-4-4/7-7-7-7-7-7-7-7---
Eb|-------------------------------------------------


1st or 2nd guitar: Clean
Eb|----------------------------------------
Bb|----------------------------------------
Gb|---------------------2-2-2-2--8-8-8-8---
Db|---4-4-4-4--7-7-7-7--2-2-2-2--8-8-8-8---
Ab|---4-4-4-4--7-7-7-7--0-0-0-0--6-6-6-6---
Eb|---2-2-2-2--5-5-5-5---------------------

Eb|----------------------------------------
Bb|----------------------------------------
Gb|---7-7-7-7-----------9-9--2-2--4-4-4-4--	x1
Db|---7-7-7-7--7-7-7-7--9-9--2-2--4-4-4-4--
Ab|---5-5-5-5--7-7-7-7--7-7--0-0--2-2-2-2--
Eb|------------5-5-5-5---------------------
				    .....
			(Palm mute only on distortion part)

----> repeat with distortion


1st or 2nd guitar
Eb|--------------
Bb|--------------
Gb|---7-7-7-7-7-7-7-7-------------------9-9-9-9-9-9-9-9--8-8-8-8-8-8-8-8
Db|---7-7-7-7-7-7-7-7--7-7-7-7-7-7-7-7--9-9-9-9-9-9-9-9--8-8-8-8-8-8-8-8
Ab|---5-5-5-5-5-5-5-5--7-7-7-7-7-7-7-7--7-7-7-7-7-7-7-7--6-6-6-6-6-6-6-6
Eb|--------------------5-5-5-5-5-5-5-5----------------------------------

Eb|--------------------------
Bb|--------------------------
Gb|---11--9-------11--9------
Db|---11--9--7----11--9--7---
Ab|---9---7--7----9---7--7---
Eb|----------5-----------5---

Eb|---------------------------------
Bb|---------------------------------
Gb|---4-4-4-4-4-4-4-4--4~-----------
Db|---4-4-4-4-4-4-4-4--4~--2~--4~---
Ab|---2-2-2-2-2-2-2-2--2~--2~--4~---
Eb|------------------------0~--2~---


This tab was kinda difficult, but I still managed to pull through. If it
seemed complicated to you, don't hesitate to e-mail me or write a comment
or question.


Enjoy,

black guitarist

The Truth – Relient K Chords

The Truth
Relient k - The Apethetic EP
2005 Gotee Records 
This is just the rythm part for the song. i'll submit the lead when i figure it out 

Intro:
e|--------XX-|
B|--------XX-|
G|-66666666-55555555------------------88888888-66666666-55555555-XX-|
D|-66666666-66666666-6666666666666666-88888888-66666666-66666666-XX-|
A|-44444444-44444444-6666666666666666-66666666-44444444-44444444-XX-|
E|-------------------4444444444444444----------------------------XX-|

straight into verse:
e|--------------|
B|--------------|
G|-6666666666666666-----------------------------------6666666666666666-| X2 (the second time alternate
D|-6666666666666666-6666666666666666-4444444444444444-6666666666666666-|     between C#5 and G#m)
A|-4444444444444444-6666666666666666-4444444444444444-4444444444444444-|
E|------------------4444444444444444-2222222222222222------------------|

break then:
e|-------------------------------------|
B|-------------------------------------|
G|-6666666-----------66666666----------|
D|-6666666-66666666--66666666-66666666-|
A|-4444444-66666666--44444444-66666666-|
E|---------44444444-----------44444444-|
 PM***********************************

Chorus:                                                                 
e|--------------|
B|-66666666666666666----------------------------------6666666666666666-|
D|-66666666666666666-666666666666666-4444444444444444-6666666666666666-|
A|-44444444444444444-666666666666666-4444444444444444-4444444444444444-|
E|-------------------444444444444444-2222222222222222------------------|

chorus endings:
  2nd time chorus is played    3rd Time
e|-------------------------|   |-------|
B|-------------------------|   |-------|
G|-66666666----------------|   |---6---|
D|-66666666-666666---------|   |-4-6---|
A|-44444444-666666---------|   |-4-4---|
E|----------444444---------|   |-2-----|

Play intro then there's a break and:
e|--------------|
B|--------------|
G|-6666666666666666-----------------------------------6666666666666666-|
A|-6666666666666666-6666666666666666-4444444444444444-6666666666666666-|
D|-4444444444444444-6666666666666666-4444444444444444-4444444444444444-|
E|------------------4444444444444444-2222222222222222------------------|
 PM***************************************************************

Play Chorus twice then there's another break then:

e|-----------------|
B|-----------------|
G|-6666666666666666------------------XX-6666666666666666------------------|
D|-6666666666666666-6666666666666666-XX-6666666666666666-6666666666666666-|
A|-4444444444444444-6666666666666666-XX-4444444444444444-6666666666666666-|
E|------------------4444444444444444-XX------------------4444444444444444-|
 PM*********************************

e|--------------------------------------------------|
B|--------------------------------------------------|
G|-----------------66666666666666666666666----------|
D|-444444444444444-66666666666666666666666-66666666-|
A|-444444444444444-44444444444444444444444-66666666-|
E|-222222222222222-------------------------44444444-|

play the beginning of the chorus then the ending is:

e|---------|         e|---|
B|---------|         B|---|
G|---6---6-|         G|-6-|
D|-4-6-4-6-| end on: D|-6-|
A|-4-4-4-4-|         A|-4-|
E|-2---2---|         E|---|

PM = Palm Mute 
please post any questions or comments

Dead To The World – Officer Negative Chords

Dead to the World
Officer Negative
Dead to the World
Copyright: 1998 Screaming Giant Records
Submitted by: Andrew (Talon1203)
Find other cool stuff @ my site: http://www.angelfire.com/dc/109


G:---------
D:----------333---------000---------------------------------------
A:--2222--------3333----------------------------------------------
E:---------

The first time this happens, play the final B after 4 times.
The second time, dont play the second B.
The last time, play the first part 8 times, then end the song with B.
G:--------------|-------------------------------------------------
D:----------0--|--------------------------------------------------
A:--3--2-------|--2-----------------------------------------------
E:--------------|-------------------------------------------------

G:---------
D:-------------------------0000-----------------------------------
A:--22222222-3333-------------------------------------------------
E:---------

Some part I do not know has alot to do with this note (E):
D:---2-----

Yeah, this tab is kinda confusing, but if you have heard this song
before, you know that you have GOT to learn how to play this thing!
It rocks!

The Vinyl Countdown – Relient K Chords

The Vinyl Countdown
Relient K 
The Vinyl Countdown 7-inch

Tunning: I do it half/step down (Eb), but you could do it in standard.

The Post-Chorus might be a little wrong, but it's close!

For the intro, go really fast, cause some chords might be hidden in
the song, so pay attention!

Intro (REALLY FAST): B E B E F#m A#m x4

Verse: B E F#m (over and over until chorus)

Chorus ( let's put this in a...): B E Ab F#m x2

Post-Chorus (It's all the same with...) C#m B E x2

Intro

Verse

Chorus

Bridge: Same chords as Post-chorus x2 (first time instrumental,
second time sing and play the Post-Chorus)

Chorus

End: A B

All of Me – Project 86 Chords

All of Me by Project 86

Tuned to Drop D and down 1/2 step (Eb Bb Gb Db Ab Db)

There are two guitars in the song. I’ve seen P-86 live, and on this song, 
the bassist played guitar, but it may have been a 5-string bass, becuase he 
uses a pick to play anyways.

That will be guitar 2.

Intro Pt. 1
Guitar 1
Eb|||------|
Bb||------------------------------------second time only>>>|-6--8-|
Gb|||-5--7-|
Db|||-3--5-|
Ab|||------|
Db|||------|
  ||                                                              |
  ||                                                              |
Guitar 2 (5 string bass)                                          |
Bb||-------|-----------------------(2X)---------------------------|
Gb||-------|------------------------------------------------------|
Db||-3-5\0-|-------------------------------------------------3--5-|
Ab||-------|-----1---------1-----1h3p1-------1---------1----------|
Db||-------|-3h5---5-x-3h5---5-x-------5-3h5---5-x-3h5---5-x------|

Intro Pt. 2
Eb|------------------------------------------------------|
Bb|-------------------------------------------------6--8-|
Gb|------3---------3-----------------3---------3----5--7-|
Db|-3h5--5----3h5--5----3h5(2X)-3h5--5----3h5--5----3--5-|
Ab|---------3---------3-----------------3---------3------|
Db|------------------------------------------------------|
  |                                                      |
  |                                                      | (2X)
  |                                                      |
Bb|-----------------------(2X)---------------------------|
Gb|------------------------------------------------------|
Db|-------------------------------------------------3--5-|
Ab|-----1---------1-----1h3p1-------1---------1----------|
Db|-3h5---5-x-3h5---5-x-------5-3h5---5-x-3h5---5-x------|

Verse Pt. 1
E|------------------------------------------------------|
B|------------------------------------------------------|
G|------------------------------------------------------|
D|-------------------------------------------------3--5-|
A|-----1---------1-----1h3p1-------1---------1----------|
D|-3h5---5-0-3h5---5-0-------5-3h5---5-0-3h5---5-0------|
 |                                                      |
 |                                                      | (2X)
 |                                                      |
B|------------------------------------------------------|
G|------------------------------------------------------|
D|-------------------------------------------------3--5-|
A|-----1---------1-----1h3p1-------1---------1----------|
D|-3h5---5-x-3h5---5-x-------5-3h5---5-x-3h5---5-x------|

Verse Pt. 2
E|------------------------------------------------------|
B|-------------------------------------------------6--8-|
G|------3---------3-----------------3---------3----5--7-|
D|-3h5--5----3h5--5----3h5(2X)-3h5--5----3h5--5----3--5-|
A|---------3---------3-----------------3---------3------|
D|------------------------------------------------------|
 |                                                      |
 |                                                      | (2X)
 |                                                      |
B|------------------------(2X)--------------------------|
G|------------------------------------------------------|
D|-------------------------------------------------3--5-|
A|-----1---------1-----1h3p1-------1---------1----------|
D|-3h5---5-x-3h5---5-x-------5-3h5---5-x-3h5---5-x------|

Chorus (2X)
Pt. 1
E|------------------|
B|-8br--8br--8br--8br--8br-10-10-10-10-10-10-10-10-11-11-11-10-

Open Hand – Project 86 Chords

band-project 86 
song- open hand (number 11) 
album- drawing black lines 
tabbed by- gabe myers (fshdogwoodmxpxjc) 

TUNING- DROP D 

INTRO:         
D---3-2-0-2      
A---3-2-0-2 
D---3-2-0-2 

lead up to verse using this (start with palm mute and then slowly let go) : 

D---2 
A---2 
D---2 

verse: 
D---3-0-2--3-2 
A---3-0-2--3-2     repeat over and over 
D---3-0-2--3-2              

before the chorus and after verse: 
             
G---5 
D---x 
A---3 
D---x 

chorus: 
             
G--------------------5 
D---3-3-0-2---3-3-0-2---3-3-0---3-3-0-2---3-3-0-2---3-3-0---x 
A---3-3-0-2---3-3-0-2---3-3-0---3-3-0-2---3-3-0-2---3-3-0---3 
D---3-3-0-2---3-3-0-2---3-3-0---3-3-0-2---3-3-0-2---3-3-0---x 

before second verse: 

D------------------------- 
A-------------------------    then repeat verse part, part before chorus, and chorus
D---3-2-0-2--3-3-0-2 

then this (before bridge): 

D---3-3-0-2---3-2-0-2 
A---3-2-0-2---3-2-0-2  try to make the notes slurr together as best you can. 
D---3-2-0-2---3-2-0-2 

RIGHT before bridge: 

G---5--- 
D---x--- 
A---3--- 
D---x--- 

bridge: 

D---2-0-2-5 
A---2-0-2-5 repeat over and over.  then go and repeat part b4 chorus then verse
D---2-0-2-5 

end on this: 

G---5 
D---x 
A---3 
D---x 

there ya go.  one more thing if you're playing with two guitars, at the 
bridge the second time around, the 2nd guitar can play the 2 octave chords 
along with the barred chords ( octave chords are the type that you ended the 
song on above this).  it makes it sound a lot fuller. 

Without Jah – Nothin – P.O.D. Chords

Without Jah, Nothin
Band: P.O.D.
Satrellite
Copyright: 2001 Atlantic Records
Matt Price - matt@homerband.com
http://www.homerband.com

Tuning = Low to High = 
C - G - C - f - a - d

Verses: (2nd trime through go to 9, instead of 4)
d----------------------------------------------
a----------------------------------------------
f----------------------------------------------
C--2-2-2-0-2--2-0-2--2-0-2/5-5/7-7-7-7--4-4-4-5
G--2-2-2-0-2--2-0-2--2-0-2/5-5/7-7-7-7--4-4-4-5
C--2-2-2-0-2--2-0-2--2-0-2/5-5/7-7-7-7--4-4-4-5

Chorus:
d------------------------
a------------------------
f--15-----15-14--14-12-12
C--x--x8--x--x---x--x--x-
G--15-----15\14--14\12-12
C------------------------

second time play this after above
d-------------------------
a-------------------------
f--12-14-12------12-14-12-
C------------14-----------
G-------------------------
C-------------------------

Breakdown: (play each chord alot)
d--3---2--
a--5---3--
f--4---4--
C------5--
G------2--
C---------

That's It. Pretty easy song

The Truth – Resin Chords

this songs is already here but i think mine is more correct (if not my grammer)

The Truth
Relient k - The Apethetic EP
2005 Gotee Records 
This is just the rythm part for the song. ill submit the lead when i figure it out 

Intro:
e|--------XX-|
B|--------XX-|
G|-66666666-55555555------------------88888888-66666666-55555555-XX-|
D|-66666666-66666666-6666666666666666-88888888-66666666-66666666-XX-|
A|-44444444-44444444-6666666666666666-66666666-44444444-44444444-XX-|
E|-------------------4444444444444444----------------------------XX-|

straight into verse:
e|--------------|
B|--------------|
G|-6666666666666666-----------------------------------6666666666666666-| X2 (the second time alternate
D|-6666666666666666-6666666666666666-4444444444444444-6666666666666666-|     between C#5 and G#m)
A|-4444444444444444-6666666666666666-4444444444444444-4444444444444444-|
E|------------------4444444444444444-2222222222222222------------------|

break then:
e|-------------------------------------|
B|-------------------------------------|
G|-6666666-----------66666666----------|
D|-6666666-66666666--66666666-66666666-|
A|-4444444-66666666--44444444-66666666-|
E|---------44444444-----------44444444-|
 PM***********************************

Chorus:                                                                 
e|--------------|
B|-66666666666666666----------------------------------6666666666666666-|
D|-66666666666666666-666666666666666-4444444444444444-6666666666666666-|
A|-44444444444444444-666666666666666-4444444444444444-4444444444444444-|
E|-------------------444444444444444-2222222222222222------------------|

chorus endings:
  2nd time chorus is played    3rd Time
e|-------------------------|   |-------|
B|-------------------------|   |-------|
G|-66666666----------------|   |---6---|
D|-66666666-666666---------|   |-4-6---|
A|-44444444-666666---------|   |-4-4---|
E|----------444444---------|   |-2-----|

Play intro then theres a break and:
e|--------------|
B|--------------|
G|-6666666666666666-----------------------------------6666666666666666-|
A|-6666666666666666-6666666666666666-4444444444444444-6666666666666666-|
D|-4444444444444444-6666666666666666-4444444444444444-4444444444444444-|
E|------------------4444444444444444-2222222222222222------------------|
 PM***************************************************************

Play Chorus twice then theres another break then:

e|-----------------|
B|-----------------|
G|-6666666666666666------------------XX-6666666666666666------------------|
D|-6666666666666666-6666666666666666-XX-6666666666666666-6666666666666666-|
A|-4444444444444444-6666666666666666-XX-4444444444444444-6666666666666666-|
E|------------------4444444444444444-XX------------------4444444444444444-|
 PM*********************************

e|--------------------------------------------------|
B|--------------------------------------------------|
G|-----------------66666666666666666666666----------|
D|-444444444444444-66666666666666666666666-66666666-|
A|-444444444444444-44444444444444444444444-66666666-|
E|-222222222222222-------------------------44444444-|

play the beginning of the chorus then the ending is:

e|---------|         e|---|
B|---------|         B|---|
G|---6---6-|         G|-6-|
D|-4-6-4-6-| end on: D|-6-|
A|-4-4-4-4-|         A|-4-|
E|-2---2---|         E|---|

PM = Palm Mute 
please post any questions or comments

Your Heroes Are Dead – Project 86 Chords

Tuned in Drop D

Intro/Verse:

E----------------
B----------------
G----------------
D-0--3--0--8--5--
A-0--3--0--8--5--
D-0--3--0--8--5--

Pre-chorus:
E------------------------------------------------------
B------------------------------------------------------
G-5-5---5-5---7---5/7----10--10/7---7/9---12---14------
D------------------------------------------------------
A-3-3---3-3---5---3/5----8----8/5---5/7---10---12------
D------------------------------------------------------

Chorus (two parts are played here, the chords, and then the covering octave):

Chords
E----------------
B----------------
G----------------
D-0---8---3---5--
A-0---8---3---5--
D-0---8---3---5--

Octave:
E-------------------------
B-------------------------
G-7-5-5/7---10---12/14----
D-------------------------
A-5-3-3/5---8----10/12----
D-------------------------

Then at the end of the chorus, these chords only are played:

E---------------------------
B---------------------------
G---------------------------
D---3-3-xxx-3-3-xxx-0~------
A---3-3-xxx-3-3-xxx-0~------
D---3-3-xxx-3-3-xxx-0~------
Bridge:

E--------------------------
B--------------------------
G--------------------------
D-12---7---8---8---7---0---
A-12---7---8---8---7---0---
D-12---7---8---8---7---0---

You could probably call this the solo part:

Again, there are chords played underneath the lead part
E--------------------------
B--------------------------
G--------------------------
D-0---8---5---0---3---5----
A-0---8---5---0---3---5----
D-0---8---5---0---3---5----

Lead Part:
E----
B----
G---10---7---14---12---15------10---7---14---12---17--------
D----
A---8----5---12---10---13------8----5---12---10---15--------
D----

Then these chords are played at the end of the solo:
E----------
B----------
G----------
D---7777---
A---7777---
D---7777---

At the very end, a different pre-chorus is played the second time:
E-----------------------------
B-----------------------------
G---55---77---9---10---12-----
D-----------------------------
A---33---55---7---8-----10----
D-----------------------------





Ending:

E------------------
B------------------
G------------------
D-15-15---15-15---0
A-15-15---15-15---0
D-15-15---15-15---0

Thats it.  Theres a lot of extra guitar noised going on in the background, 
that makes it kind of confusing.  Leave your comments.