Tag: Second Time

Constant Bloom Chords – Moon Safari

 Moon Safari - Constant Bloom

 Bb Cm Dm 
Strange are the days
          Eb F 
How they seem out of place
         Dm D Gm 
Flowers spring in a row
      Eb C7 F 
To defeat the ridden snow

 Bb Cm Dm 
Yet they exist
         Eb F 
Without magic or tricks
         Dm D Gm 
When by chance, loving June
           Eb F Bb 
Gasps for air and calls out "Bloom!"

 Eb Dm Dm7 
Life as is said goes up and down
 Eb F Bb Ab Bb 
We walk through the door a second time around to
 Eb Dm Dm7 
Do what was said but never done,
 Eb D7 Gm F C7 
And promised you gardens made of green

           Bb Eb Gm Ebm 
Yet we're lost in this tune, just men of the moon
 Bb Eb F Bb 
That sing for a world of constant bloom

Pulp Fiction solo Tabs by Motion City Soundtrack

 Pulp Fiction by Motion City Soundtrack

I do not own this song.


I was bored and figured this one out in a couple of minutes. It's extremely easy to
play. I'm not too great of guitarist but if anyone's interested, here it is. I might tab the
rest of the song later:

Power chords used:

d#|-----------------------|
A#|-----------------------|
F#|--6-----(9)*---4----2--|  *this chord every second time
C#|--6----2(9)*---4----2--|
G#|--4----2(7)*---2----0--|
D#|-------0---------------|

The melody part which is played in chorus as well, repeated many times

d#|--------------14-11-12-11---------------------14-11-12-11----|
A#|--11h12-11h12-------------12-14---11h12-11h12-------------14-|
F#|-------------------------------------------------------------|
C#|-------------------------------------------------------------|
G#|-------------------------------------------------------------|
D#|-------------------------------------------------------------|

I'm not 100% sure what happens in the end when Justin says "Wating for the big bang..."
for the last time but I think it's just a bunch of C5 and D#5 ending on a single Bb5. By
the way, I don't have access to guitar pro tabs so if someone has already tabbed exactly 
the same, I apologize. I assure I haven't seen that.

There Is None Like You Chords – Javen

 Haven't seen this one out yet. We played this with our youth group. Turned out great!

None Like You - Javen
(intro)  D A Bm G D A Bm G D A Bm G D A Bm G D A 
I SEE YOU IN THE STARS, I HEAR YOU IN THE RAIN 
 Bm G 
YOU'VE BEEN A HEALING FOR MY PAIN 
 D A 
RESTORER OF MY SOUL BEAUTY NOW MADE WHOLE 
 Bm G 
I WANT TO KNOW YOU MORE AND MORE 
 Em C 
         THAT'S WHY I AM HERE TO SAY 

              D A 
GLORY HALLELUJAH TO THE RISEN KING 
                        Bm G 
I'M SINGING HALLELUJAH TO THE ONE WHO REIGNS 
                     D A 
I JUST WANT TO KNOW YOU GIVE YOU ALL OF ME
                       Bm G  
THERE'S NO ONE ABOVE YOU LORD OF EVERYTHING 
                   D A 
THERE IS NONE LIKE YOU YEAH
                   Bm G  
THERE IS NONE LIKE YOU YEAH 

 D A 
SO HUMBLY I COME TO YOU, SAYING I NEED YOU
 Bm G  
AND READY TO BE WHAT YOU NEED ME TO BE
 D A 
RESTORATOR, THE GIVER OF MY LIFE 
 Bm G 
NO ONE TO COMPARE, YOU'RE LOVE TAKES ME HIGHER
 Em G 
AND I AM HERE TO SING 

             D A 
GLORY HALLELUJAH TO THE RISEN KING 
                        Bm G 
I'M SINGING HALLELUJAH TO THE ONE WHO REIGNS 
                     D A 
I JUST WANT TO KNOW YOU GIVE YOU ALL OF ME
                       Bm G  
THERE'S NO ONE ABOVE YOU LORD OF EVERYTHING

          A Bm 
RIGHT HERE I AM TO WORSHIP YOU 
     G Bm 
I LIFT MY HANDS AND SAY WHAT'S TRUE 
          A Bm 
THE ONLY GOD I'VE COME TO KNOW 
           G 
THE RIGHTOUS ONE FOREVER MORE

(2x FIRST TIME SOFT, SECOND TIME FULL)
             D A 
GLORY HALLELUJAH TO THE RISEN KING 
                        Bm G 
I'M SINGING HALLELUJAH TO THE ONE WHO REIGNS 
                     D A 
I JUST WANT TO KNOW YOU GIVE YOU ALL OF ME
                       Bm G  
THERE'S NO ONE ABOVE YOU LORD OF EVERYTHING
(2x FULL)
                   D A 
THERE IS NONE LIKE YOU YEAH
                   Bm G  
THERE IS NONE LIKE YOU YEAH

Mad Sounds Tabs by Arctic Monkeys

 A song That's Gonna Be On The New Arctic Monkeys Album "AM"

this Song made his live debout , and this is tab for you all :)

enjoy this great song!!
 
**let me know how this tab was for you , by rating it :) ***


Intro (Lead Gutiar)

e|-----------5-~---------3---|
B|---------------------------|
G|----3-s-5------5-s-3-------|
D|---------------------------|  
A|---------------------------|
E|---------------------------|

Second Time :

e|-----------5-~---6p5----5------3------|
B|--------------------------------------|
G|----3-s-5------5------5------3--------|
D|--------------------------------------|  
A|--------------------------------------|
E|--------------------------------------|


Then:

.....          They'll Bring.........Live........  
e|----3--5--6---10---8--6---5---------------------------------|
B|-----------------------------5------6------------8----------|
G|----3--5--6---10---8--6---6----6-------7-----7-----7---0----|
D|------------------------------------7-----7------8---8------|
A|------------------------------------------------------------|
E|------------------------------------------------------------|



...Mad Sounds.... .In Your Ears
e|------------1---------------------------|
B|----------1------3----------------------|
G|-------2------------3-------------------|  x3
D|----3------------------3----------------|
A|--------------------------1~~-----------|
E|----------------------------------------|

4 time :

........Make You Get Up
e|------------1--------------------------|
B|----------1---------3------------------|
G|-------2------------3------------------|
D|----3---------------3------------------|
A|--------------------1------------------|
E|---------------------------------------|



e|----1-~------------------------------------------|
B|----1-~------3-----------------------------------|
G|----2-~------3-----------------------------------|   X2
D|----3-~------3-----------------------------------|
A|----3-~------1-----------------------------------|
E|----1-~------------------------------------------|



Reapet Until The Bridge:



.....suppose..Gotta do...Tried.Figure Out..
e|----1-~-----------------3----1----------------------|
B|----1-~------3----------3----1----------------------|
G|----2-~------3---x2-----3----0----x2----------------|   
D|----3-~------3----------5----2----------------------|
A|----3-~------1----------5----3----------------------|
E|----1-~-----------------3---------------------------|



And The O-La-LaLa  Part Is The Same As 


e|----1-~------------------------------------------|
B|----1-~------3-----------------------------------|
G|----2-~------3-----------------------------------|   X2
D|----3-~------3-----------------------------------|
A|----3-~------1-----------------------------------|
E|----1-~------------------------------------------|

Second Time Around Chords – Madeline Juno

 ==================================
MADELINE JUNO - SECOND TIME AROUND
==================================
(capo on 2nd fret)

=====
INTRO
=====

 D#m B C# 

=======
VERSE 1
=======
 D#m    
It must be something 
         B C# 
in the way things are between us

I can't shake it off
 D#m B 
I don't know what it is

where we're going
        C# 
do you miss me

the way I miss you
 D#m 
whenever we don't talk
             B 
whenever we fade
                  C# 
whenever we float apart in every way
                     D#m 
I know that I can't help myself
                B 
but rip out my heart
          C# 
now it's yours to have



======
CHORUS
======

won't you let me
 D#m B             
take you back to the place where we first met
 C# 
just take my hand again 

and kiss me on the forehead 
 D#m 
say "we'll be alright
          B 
this is our time now
              C# 
we'll make it work somehow
              D#m B 
second time around
             C# 
second time around"


=======
VERSE 2
=======

 D#m  
it must be something 
        B 
in the way you smile
        C# 
in the way you walk

with your head held so high
 D#m B 
and I'm blue as your eyes

you're not mine
        C# 
and do you recall now
                          D#m 
the night when you would say
                 B 
"give it some time
                    C# 
just wait a little longer 

and you are mine"
                 D#m 
I knew I couldn't help myself
        B 
but rip out my heart
         C# 
now it's yours to have

 D#m 
I, I didn't lie
 B 
I, I didn't lie
 C# 
and I'm sorry 

I'm not what you wanted
 D#m B 
I, I won't cry no more

I won't cry
 C# 
I'm giving you up

I'm giving you up
            D#m 
if you can't seem to want me
     B 
the way I want you
 C# 
won't you let me
 D#m B 
take you back to the time when you loved me
      C 
you had me hanging on your last words
      D#m 
you said we'd be alright
          B 
this was our time now
              C# 
don't let me go now
                  D#m  
one second time around
 B C# 
second time around
              D#m B 
don't let me go now
                C# 
second time around

Deathlike Silence Tabs by Sodom

 SODOM - DEATHLIKE SILENCE
(Obsessed By Cruelty, 1986)

Key
= after note = vibrato
^ after note = heavy vibrato
 = slide down
/ = slide up
+ = tap
h = hammer
p = pull
n = natural harmonic
s = pinching harmonic (squeal)
* = tremolo pick
t = trill
b = bend
|-3-| = triplet

n number above the tab = play the first part then the first finishing part
                         play the first part a second time and then play the second 
finishing part
                         etc.

Riff 1

E -------------------------------------------------------------------------------------|
B -------------------------------------------------------------------------------------|
G ----------------------------------5-4-5----------------------------------10--10--10--|
D -------8----------8----------8----5-4-5-------8----------8----------8----10--10--10--|
A -55-55---55-55-55---55-55-55---55-3-2-3-55-55---55-55-55---55-55-55---55-8 --8 --8 --|
E -------------------------------------------------------------------------------------|
                                    |-3-|

Riff 1A

E ---------------------------------------------|
B ---------------------------------------------|
G ---------------------------------------------|
D ---12---14-----7----5------------------------|
A ---10---12-----5----3------------------------|
E ---------------------------------------------|

Riff 2

E ---------------------------------------------|
B ---------------------------------------------|
G -------2----------3----------2----------3--2-|
D -------2----------3----------2----------3--2-|
A ---------------------------------------------|
E -0-0-0----0-0-0-0----0-0-0-0----0-0-0-0------|

Riff 3A

E ----------------------------------------------------------------------------|
B ----------------------------------------------------------------------------|
G --------------9----9----7----7----7----7----9----9----9----9----12----10----|
D --------------9----9----7----7----7----7----9----9----9----9----12----10----|
A -5h7----------7----7----5----5----5----5----7----7----7----7----10----8 ----|
E -----00-00-00---00---00---00---00---00---00---00---00---00---00-------------|

E ------------------------------------------------------------------------|
B ------------------------------------------------------------------------|
G -7----7----7----7----5----5----5----5----7----7----7----7----10----9----|
D -7----7----7----7----5----5----5----5----7----7----7----7----10----9----|
A -5-00-5-00-5-00-5-00-3-00-3-00-3-00-3-00-5-00-5-00-5-00-5-00-8 ----7----|
E ------------------------------------------------------------------------|

E -----------------------------------------------------------------------|
B -----------------------------------------------------------------------|
G -5----5----5----5----4----4----4----4----5----5----5----5----7----9----|
D -5----5----5----5----4----4----4----4----5----5----5----5----7----9----|
A -3-00-3-00-3-00-3-00-2-00-2-00-2-00-2-00-3-00-3-00-3-00-3-00-5----7----|
E -----------------------------------------------------------------------|

E -------------------------------------------------------------------------|
B -------------------------------------------------------------------------|
G -9----9----9----9----7----7----7----7----9----9----9----9----12----10----|
D -9----9----9----9----7----7----7----7----9----9----9----9----12----10----|
A -7-00-7-00-7-00-7-00-5-00-5-00-5-00-5-00-7-00-7-00-7-00-7-00-10----8 ----|
E -------------------------------------------------------------------------|

Riff 3

E -------------------------------------------------------------------------|
B -------------------------------------------------------------------------|
G -9----9----9----9----7----7----7----7----9----9----9----9----12----10----|
D -9----9----9----9----7----7----7----7----9----9----9----9----12----10----|
A -7-00-7-00-7-00-7-00-5-00-5-00-5-00-5-00-7-00-7-00-7-00-7

Messin Around Tabs by Dispatch

 -----------------------------------------------------------------------------
                             Messin Around - Dispatch 
-----------------------------------------------------------------------------
Tabbed by: hey sturgio
E-mail:sturge.michael@yahoo.com

Tuning: standard

Verse:
e|--------------------------------------------------------------------------|
B|--------------------------------------------------------------------------|
G|-7--9--10--12--9--7--6--6------------------------6------------------------|
D|-x--x--x---x---x--x--x-(7)-----------------------x------------------------|
A|-5--7--8---10--7--5--4--x------------------------4------------------------|
E|------------------------5-------------------------------------------------|
                                                   Repeat.  second time end on: 
Interlude:
e|--------------------------------------------------------------------------|
B|--------------------------------------------------------------------------|
G|--------------------------------------------------------------------------|
D|------3h5p3----------5\6-5-3-3-3------------------------------------------|
A|--5-5-------5-5--3-3------------------------------------------------------|
E|--------------------------------------------------------------------------|

Bridge:
e|--------------------------------------------------------------------------|
B|--------------------------------------------------------------------------|
G|--7--6--------------------------------------------------------------------|
D|--7--7--------------------------------------------------------------------|
A|--5--7--------------------------------------------------------------------|
E|-----5--------------------------------------------------------------------|

Remember Everything Tabs by Five Finger Death Punch V1

 Hey guys, this is  Remember Everything. This is one of my favorite songs. Ill put 
the rest up as i figure it out. Remember im only 16 so im still new at this.
Contributor: 49erhometown
email: spurs49ersgiants4life@yahoo.com
Tuning low to high A-E-A-D-F#-B
Its not 100% but its close
                                                      Don't play this
Intro:                                                 on second time
|--------------------------------------------------|-----------------|
|o-------------------------------------------------|----------------o|
|--------6-4-------------6-4-----------------------|-----------------|
|------7-----6---------7-----6-7-4-----4-7-6-----4-|----4-7-6--------|
|o---9-----------9---9---------------4-------7-----|--4-------7---7-o|
|--0-----------0---0---------------4-----------4---|4-----------7----|

                        on second time play this: |-----------------|
                                                  |-0---------------|
                                                  |-4---------------|
                                                  |-4---------------|
                                                  |-----------------|
                                                  |-----------------|

Verse:                                             Don't play this part
                                                    on the second time
|--------------------------------------------------|----------------|
|o-------------------------------------------------|---------------o|
|--------6-4-------------6-4-----------------------|----------------|
|------7-----6---------7-----6-7-4-----4-7-6-----4-|---4-7-6--------|
|o---9-----------9---9---------------4-------7-----|-4-------7---7-o|
|--0-----------0---0---------------4-----------4---|4-----------7---|

on second time play this:
|-----------------------------------------------------------------------|
|-------2-0-----------3---2----------------------------------5-------9--|
|-----2-----1--2--------------4--------------------------------6------9-|
|---2---------------4---4---4--------7--6---4----4--2--4---6--------9---|
|-0----------0----2----------------4--4---4-------5-------4--------7----|
|--------------------------------4-------------0------------------------|


Chorus:

|--------------------------------------------------------|-------------|
|o-------------------------------------------------------|------------o|
|--2--------2--2--4--------4--4-----------------7------6-|-------------|
|--2--------2--2--4--------4--4--4--------4--4--7------6-|--x-x-x-x----|
|o-0--------0--0--2--------2--2--4--------4--4--5------4-|--x-x-x-x---o|
|--------------------------------4--------4--4-----------|--x-x-x-x----|
                                                       On second time 
                                                       hold this chord:
                                                         |---------------|
                               dont play this            |---------------|
                               on second chorus          |---------------|
                                                         |-x-x-x-x-4~~~~-|
                                                         |-x-x-x-x-4~~~~-|
                                                         |-x-x-x-x-4~~~~-|


Repeat Verse (for clean guitar) 
Distorted guitar is here: (just listen, you will hear when to play)

|------------|                  |-----|
|------------|                  |-----|Then go back to playing
|------------|                  |-6~~-|the muted part until:
|----------4-|(Just play this   |-6~~-|
|----------4-|muted a lot until |-4~~-|Play this again too but quickly 
|-\\\12----4-|you play this):   |-----|transition to next part
           *

Preverse: You will hear when this happens, i believe it is the same as when the 
change happens in the clean part

Acoustic Medley Tabs by In Flames V4

 I Tabbed out all three guitars for this song. Song is played Half Step down.
Tuning: Eb,Ab,Db,Gb,Bb,Eb,
There might be some minor mistakes but im sure its quite accurate.
Structure of the song is at the bottom
************************************

| /   slide up
| \   slide down
| h   hammer-on
| p   pull-off
| ~   vibrato
| +   harmonic
| x   Mute note
| b   Bend
| pb  Pre-bend
| br  Bend release
| pbr Pre-bend release
| brb Bend release bend

************************************
---------------------------------Guitar 1------------------------------------
RIFF A:
|-----------------|-----------------|
|1-----1-----3/5--|1-----1-----3/5--|
|--2-----2--------|--2-----2--------|
|-----------------|-----------------|
|----0-----0------|----0-----0------|
|-----------------|-----------------|
 
|---------------------|---------------------|
|-/10-~--8----~--6--~-|8--~-6--~-5--~-------|
|---------------------|---------------7---~-|
|---------------------|---------------------|
|---------------------|---------------------|
|---------------------|---------------------|


RIFF B:
|-------------------|-----------------|
|5--~--------------5|6-5--------------|
|-------7---~----7--|----7-5--~-5-5-7-|
|-------------------|-----------------|
|-------------------|-----------------|
|-------------------|-----------------|
 
|--------------------|----------------|
|5---6-/8---6-5-6-5--|----5--6/8------|
|--5----------------7|5---------------|
|--------------------|--7-------------|
|--------------------|----------------|
|--------------------|----------------|

Second time you      |----------------|      
play this ending     |----5-----------|    
                     |5-----7---------|      
                     |--7-------------|      
                     |----------------|      
                     |----------------| 


RIFF C:
|-----------------|-----------------|
|1-----1-----3/5--|1-----1-----3/5--|
|--2-----2--------|--2-----2--------|
|-----------------|-----------------|
|----0-----0------|----0-----0------|
|-----------------|-----------------|
 
|---------------------|---------------------|
|-/10-~--8----~--6--~-|8--~-6--~-5--~-------|
|---------------------|---------------7---~-|
|---------------------|---------------------|
|---------------------|---------------------|
|---------------------|---------------------|


RIFF D:
|-----------------------|-----------------------|
|-----------------------|-----------------------|
|-5-----9-----7-----4---|-2-----5-----4-----7---|
|-----------------------|-----------------------|
|----0-----0-----0----0-|----0-----0-----0----0-|
|-----------------------|-----------------------|     

|-----------------------|-----------------------|
|-----------------------|-----------------------|
|-5-----9-----7-----4---|-2-----5-----4-----2---|
|-----------------------|-----------------------|
|----0-----0-----0----0-|----0-----0-----0----0-|
|-----------------------|-----------------------|                 

RIFF E:
|-------------------|----------------|
|-------------------|----------------|
|-------------------|----------------|
|-------------------|---------9-7-7--|
|--7---9-9-h10--10--|--7---10--------|
|0---0--------------|0---0-----------|

|-------------------|---------------------|
|-------------------|---------------------|
|-------------------|---------------------|
|-------------------|---------------------|
|--7---5-5-h7---7---|7---9-10-10-9h10-7-9-|
|0---0--------------|---------------------|

RIFF F: 
|----------------|------------------|
|-------7---5--8-|--7---5-4---------|
|----------------|-----------7-5-4--|
|----9-----------|------------------|
|--7-------------|------------------|
|0---------------|------------------|

|-----------------|---------------------|
|-----------------|---------------------|
|---------------7-|7-7-9----7-----------|
|7-\5-5------

Wrecking Ball Chords – Casa Murilo

 Intro: G,C,G,D,C 2 times. first time chill second time go crazy. hope u enjoy!
  
                           G 
I’ve been approaching the edge since I left my home
 C 
Taking my chances trying to go it alone
       G D C    
Now I find myself with nothing left to lose
                           
                            G 
Yeah we’ve been running on empty, now we’re out of time
 C 
Young at the start, now we’re crossing the line
       G D C   
And I find we got everything to prove


Pre-chorus 


 Em G Am  
And if we vanish into someone else’s crowd
                     C Em  
Keep our heads down til the lights go out
        G D       
Making eyes at the dark side, line after line just to feel alive


Chorus

         C G D 
And the night time’s not for sleeping anymore
                     C G D      
You and me we spent 3 years trying to keep the wolves back from the door
               C G D 
And now we’re kicking out kicking out, yeah we're kicking out.

Wish I could show you what the fuss is about
              C  
Bring on the wrecking ball
            G D  
Until they can’t take anymore

YeahYeahyeah! - chorus chords ( C , G  and  D )x1
                       G  
Verse 2

How many days did you doubt that we would find our place?
 C 
Crashing parties leaving off of your face
         G D C                  
You and I we could find we`ve got nowhere left to go

Pre-chorus

 Em G Am  
And if we vanish into someone else’s crowd
                     C Em  
Keep our heads down til the lights go out
        G D       
Making eyes at the dark side, line after line just to feel alive


Chorus

         C G D 
And the night time’s not for sleeping anymore
                     C G D      
You and me we spent 3 years trying to keep the wolves back from the door
               C G D 
Ooh and now we’re kicking out kicking out, yeah we're kicking out.

Wish I could show you what the fuss is about
              C  
Bring on the wrecking ball
            G D  
Until they can’t take anymore

YeahYeahyeah! - chorus chords ( C , G  and  D )x2

Shadow Days Tabs by John Mayer V3

 I was a little disappointed with the way the other tabs were so I decided to try 
and make an accurate one. Fingers crossed. This is my first tab and 
I just went off of listening to the track so cut me some slack if it's awful. :) 

The chords used are: D, C, G, Em, Bm, A

Intro
(/) Slide Up  (\) Slide Down  (h) Hammer On  (p) Pull Off  (b) Bend (r) Release (v) Vibrato

E|--------------------------------------------|
B|--10--7--10--10b12--8--------------------8--|
G|-----------------------9b10--7-----7--9-----|  
D|--------------------------------------------|        X2 (second time without 
A|--------------------------------------------|        last three notes.)
E|--------------------------------------------|

Verse
D
Did you know that you could be wrong
    C
And swear you're right
G
Some people been known to do it
Em
All their lives

D
But you find yourself alone
          C
Just like you found yourself before
     G
Like I found myself in pieces
Em
On the hotel floor

Pre-chorus
G                   Em  
Hard times, help me see

Chorus
D
I'm a good man with a good heart
G
Had a tough time, got a rough start
Bm                           A  G
But I finally learned to let it go
D
Now I'm right here, and I'm right now
G
And I'm open, knowing somehow
Bm                    A G 
That my shadow days are over
G
My shadow days are over now

Repeat the intro and it should repeat exactly like that for the next verse, chorus 
and the final chorus.

Solo

Electric Solo


E|---------------------------------------------------------12b13--13--13--13--13--13--13--10--10-10|
B|-10~-----7--10--11/14\11----7--10--12/15\12--12/15\12--------------------------------------------|
G|-----7-------------------7--------------------11/14\11-------------------------------------------|
D|-------------------------------------------------------------------------------------------------|
A|-------------------------------------------------------------------------------------------------|
E|-------------------------------------------------------------------------------------------------|

Acoustic Solo


E|--10h12--12--12--10--7--5--3----------------|
B|--10h12--12--12--10--7--5--3----------------|
G|--------------------------------------------|
D|--------------------------------------------|
A|--------------------------------------------|
E|--------------------------------------------|

E|--10h12--12--12--10--7--5--3--7--3--3--3/5\3|
B|--10h12--12--12--10--7--5--3--7--3--3--3/5\3|
G|--------------------------------------------|
D|--------------------------------------------|
A|--------------------------------------------|
E|--------------------------------------------|

*Brief instrumental break (2 measures)*

E|--12--12--12--12--10--10--7--7--5--3/5\-----|
B|--12--12--12--12--10--10--7--7--5--3/5\-----|
G|--------------------------------------------|
D|--------------------------------------------|
A|--------------------------------------------|
E|--------------------------------------------|

The Bitter End Chords – Placebo V3

 The song is played in Eb Standard (From low to high, Eb Ab Db F# Bb Eb), which is 
a half-step down from E-Standard. 
Unless you wanna play along to the original (or if you're lazy like me), playing 
it in E-Standard sounds great as well.

Very, very simple song. Just 2 chords throughout the whole song. 

Chords Used

 C   - x32010 (using C/G sounds good too. 332010)
 Em  - 022000 OR x79987(for the Intro/Verse, you can use the 2nd fretting for
                      some complexion/variety and stick with the 1st 
                      fretting for Chorus.)

Cmaj7 (x32000) and Em7 (020000) can be added in at anytime for some variation and 
make it less of a chore to play.
Have fun~!

=============================================

Intro:  Em Em C 
Since we're feeling so anaesthetised
                Em ,
In our comfort zone
                            C 
Reminds me of the second time
                      Em 
That I followed you home

 Em C 
We're running out of alibis
                    Em 
From the second of May
                           C 
Reminds me of the summer time
                  Em 
On this winter's day


    C Em 
         See you at the bitter end
    C Em 
         See you at the bitter end

 Em C 
Every step we take that's synchronized
               Em 
Every broken bone
                            C 
Reminds me of the second time
                     Em 
That I followed you home

                         C 
You shower me with lullabies
                     Em 
As you're walking away
                               C 
Reminds me that it's killing time
                 Em 
On this fateful day


 C Em 
     See you at the bitter end
 C Em 
     See you at the bitter end
 C Em 
     See you at the bitter end
 C Em 
     See you at the bitter end

 Em 
From the time we intercepted
 Em 
Feels a lot like suicide
 C 
Slow and sad, grown inside us
 C 
Arouse and see you're mine
(See you at the bitter end)
 Em 
Love has seen your run-around
 Em 
Who wanna seek you now?
 C 
I want a peace
 C 
I'd whine out
(See you at the bitter end)

 Em 
Love's reached his side
 Em 
Grab this gentleness inside
 C 
Heard a cry
Six feet down
 C 
In six weeks' time
The mess you left
                        Em  (finishing note)
                  Will end
(See you at the bitter end)

===========================

If you have a capo, you can play it on the 6th fret and switch out Em with Am 
(x02210) and C with F (133211)

Theres No Going Back Tabs by Sick Puppies V2

 A more mainstream sounding song from Sick Puppies' album Connect
I tabbed this by ear so it may not be 100% perfect but I think it sounds ok, there are 
other ways to play the song if you experiment with tunings.

Guitar 1 (Lead)
Verse 1 (Clean)
(0.00 - 0.40)
e--------------------------------------------------------------------------|
B--------------------------------------------------------------------------|
G------2-2-2-2-2-2-2-2-4-4-4-4-4-4-4-4-1-1-1-1-1-1-1-1-2-2-2-2-2-2-1-1-----|
D--------------------------------------------------------------------------|
A--------------------------------------------------------------------------|
D--------------------------------------------------------------------------|
(x3)
Then depending on the version of the song you are listening to either this plays, or see 
guitar 3 below.
e--------------------------------------------------------------------------|
B--------------------------------------------------------------------------|
G------2-2-2-2-2-2-2-2-4-4-4-4-4-4-4-4-7-7-7-7-7-7-7-7-6-6-6-6-X-X-X-X-----|
D--------------------------------------------------------------------------|
A--------------------------------------------------------------------------|
D--------------------------------------------------------------------------|

Repeat a second time but this time only play first part twice

Chorus 1 (Distorted)
(0.40 - 1.15)
Repeat the notes
e---------------------------------------------------|
B---------------------------------------------------|
G------2~~~~~~~~~~1~~~---4-4------4-4---------------|
D---------------------2------2-2------2-------------|
A---------------------------------------------------|
D---------------------------------------------------|

e---------------------------------------------------|
B---------------------------------------------------|
G------2~~~~~~~~~~1~~~~~~~~~~~~~--------------------|
D---------------------------------------------------|
A---------------------------------------------------|
D---------------------------------------------------|

e---------------------------------------------------|
B---------------------------------------------------|
G------2-2-2-2-4-4-4-4-2-2-2-2-1-1-1-1-1-1-1-2~-----|
D---------------------------------------------------|
A---------------------------------------------------|
D---------------------------------------------------|
(x3)

e---------------------------------------------------|
B---------------------------------------------------|
G------2-2-2-2-4-4-4-4-7-7-7-7-6-6-6-6b^(7) r(6)----|
D---------------------------------------------------|
A---------------------------------------------------|
D---------------------------------------------------|

Verse 2 (Clean)
(1.15 - 1.39)
e--------------------------------------------------------------------------|
B--------------------------------------------------------------------------|
G------2-2-2-2-2-2-2-2-4-4-4-4-4-4-4-4-1-1-1-1-1-1-1-1-2-2-2-2-2-2-1-1-----|
D--------------------------------------------------------------------------|
A--------------------------------------------------------------------------|
D--------------------------------------------------------------------------|
(x3)

e--------------------------------------------------------------------------|
B--------------------------------------------------------------------------|
G------2-2-2-2-2-2-2-2-4-4-4-4-4-4-4-4-7-7-7-7-7-7-7-7-6-6-6-6-X-X-X-X-----|
D--------------------------------------------------------------------------|
A--------------------------------------------------------------------------|
D--------------------------------------------------------------------------|

Chorus 2 (Distorted)
(1.39 - 2.14)
Repeat the notes
e-------------------------------------------------|
B-------------------------------------------------|
G------2~~~~~~~~~~1~~~~---------------------------|
D--------------------------

Fell Off The Floor Man Tabs by Deus

 Fell Off The Floor, Man  - dEUS

tab by Stewart & Avi 

Intro -
something like...
    G   F
e|----------|
B|----------|
G|--12--10--|
D|--12--10--|
A|--10--8---|
E|----------|

after the first time | after the
another guitar do -  | second time - 
e|------|            |------|
B|------|            |------|
G|--10--|            |--12--|
D|--10--|            |--12--|
A|--8---|            |--10--|
E|------|            |------|

then - 
e|---------------------------------|
B|---------------------------------|
G|---------------------------------|
D|---------------------------------|
A|---------------------------------|
E|-4-4-4-2-2-2-2-2-7-7-7-1-1-1-1-1-|

then another guitar plays this -
e|---------------------------------|
B|---------------------------------|
G|---------------------------------|
D|-6-6-6-4-4-4-4-4-9-9-9-3-3-3-3-3-|
A|---------------------------------|
E|---------------------------------|

After which both are played together

Verse - 

only bass...
G|-------|
D|-------|
A|-------|
E|-7-7-9-|

over which Craig plays this - 
e|-----------|
B|-----------|
G|-----------|
D|-9-9-9-9-9-|
A|-----------|
E|-----------|

The loud Eb after “headcase”...
e|-----|
B|-----|
G|--8--|
D|--8--|
A|--6--|
E|-----|

this riff over the “I don't need no...” bit - 
e|-----------|
B|-----------|
G|-4-4-4-6br-|
D|-----------|
A|-----------|
E|-----------|

The loud chord at the end of this bit is again an Eb

The funky keyboard solo is I think C G A C G A  - Loud Eb - then D A 

There is a key change and the chords are -
   C#5    Eb5 
e|-----|-----|
B|-----|-----|
G|--6--|--8--|
D|--6--|--8--|
A|--4--|--6--|
E|-----|-----|

The heavy bit -
e|------------------------------------|
B|------------------------------------|
G|------------------------------------|
D|-6-6-6--4-4-4-4-4--9-9-9--3-3-3-3-3-|
A|-6-6-6--4-4-4-4-4--9-9-9--3-3-3-3-3-|
E|-4-4-4--2-2-2-2-2--7-7-7--1-1-1-1-1-|

then verse again and then...
e|-----|------|
B|-----|------|
G|-----|------|
D|--9--|--11--|
A|--9--|--11--|
E|--7--|--9---|

Then the bass plays - 
G|-----------|
D|-----------|
A|-----------|
E|-0-0-0-0-0-|

...and heavy again

Outro - 

   Bb5   C#5 
e|-----|------|
B|-----|------|
G|-----|------|
D|--8--|--11--|
A|--8--|--11--|
E|--6--|--9---|

one guitar - 
e|-----------|
B|-9-7-------|
G|-----9-8-6-|
D|-----------|
A|-----------|
E|-----------|

another guitar - 
e|-----------|
B|-----------|
G|-----6-8-9-|
D|-7-9-------|
A|-----------|
E|-----------|

Put The Freaks Up Front Tabs by Deus

 Put The Freaks Up Front  -  dEUS

tab by Avi

Intro riff - 
e|---------------------------|
B|---------------------------|
G|-0h12\6-6-6--6-6-6-5-6-5\3-|
D|---------------------------|
A|---------------------------|
E|---------------------------|

the chords are - 
       F#m        Em
e|-----------|----------|
B|-----------|----------|
G|-11--------|-9--------|
D|-11-(or)-4-|-9-(or)-2-|
A|-9-------4-|-7------2-|
E|---------2-|--------0-|

first verse main riff (with very "big" distortion) - 
e|--4/5--5--|
B|--5/6--6--|
G|--6/7--7--|
D|--6/7--7--|
A|----------|
E|----------|

Verse - 
                         ___________________________
    Dm    Bb            |and every second time  Gm  |
e|--5--|--6--|                               e|--3--|
B|--6--|--6--|                               B|--3--|
G|--7--|--7--|                               G|--3--|
D|--7--|--8--|                               D|--5--|
A|--5--|--8--|                               A|--5--|
E|-----|--6--|                               E|--3--|

Chorus - 
                         _________________________
    Bm    G             |and every second time Em |
e|--2--|--3--|                             e|--0--|
B|--3--|--3--|                             B|--0--|
G|--4--|--4--|                             G|--0--|
D|--4--|--5--|                             D|--2--|
A|--2--|--5--|                             A|--2--|
E|-----|--3--|                             E|--0--|

Bridge ("come and feel what...") - 
    F#    Dm
e|--2--|--5--|
B|--2--|--6--|
G|--3--|--7--|
D|--4--|--7--|
A|--4--|--5--|
E|--2--|-----|

Outro - 
a few times the same as Intro and then...
e|------------|
B|------------|
G|-0h12/6-6-6-|
D|------------|
A|------------|
E|------------|

Dm                     Dm                              Bb
So you're suffering, I know it hurts a lot if it's the first time.
Dm                     Dm                        Bb     Gm
Whenever I begin, make sure to keep my empathy inside.
Dm                           Dm                           Bb
The harder that it gets, the more the company will do you all in.
Dm                                              Dm
Here comes another hit. This isn't dying, it's just a slow way of 
Bb          Gm
falling

 Bm                   Bm              G
 You place your frown heavily down on me and
     Bm                Bm                 G     Em
 and try make me weak, too lame to speak, I

and all the rest of the song is the same except for the bridge...

F#                    Dm          F#                Dm
Come and feel what it does to me, so much more than fantasy
F#                Dm    F#           Dm                           Dm
put your panic on hold, amplify your very soul and keep breathing.

Sick And Impatient Tabs by Citizen

 -----------------------------------------------------------------------------
                             SICK AND IMPATIENT - Citizen
-----------------------------------------------------------------------------

Tuning: Drop D

Intro:                         x2                                x2
e|-------------------------------|---------------------------------|
B|-------------------------------|---------------------------------|
G|-------------------------------|---------------------------------|
D|-------------------------------|---------------------------------|
A|-1-1-1-1-1-1-1-1-1-1-1-1-1-1-1-|---------------------------------|
D|-------------------------------|-1-1-1-1-1-1-1-1-1-1-1-1-1-1-1-1-|
 |                               |                                 |
e|-------------------------------|---------------------------------|
B|-------------------------------|---------------------------------|
G|-------------------------------|---------------------------------|
D|-----8---8p6--6----------------|---------------------------------|
A|------------------8---8p6---6--|-----4---4h6---6----6---6p4------|
D|-------------------------------|---------------------------------|


Verse: x2
e|-------------------------------|---------------------------------|
B|-------------------------------|---------------------------------|
G|-------------------------------|---------------------------------|x2
D|-------------------------------|---------------------------------|
A|-1-1-1-1-1-1-1-1-1-1-1-1-1-1-1-|---------------------------------|
D|-------------------------------|-1-1-1-1-1-1-1-1-1-1-1-1-1-1-1-1-|

e|---------------------------------|---------------------------------|
B|---------------------------------|---------------------------------|
G|---------------------------------|---------------------------------|
D|---------------------------------|---------------------------------|
A|-4-4-4-4-4-4-4-4-4-4-4-4-4-4-4-4-|-6-6-6-6-6-6-6-6-6-6-6-6-6-6-6-6-|
D|-4-4-4-4-4-4-4-4-4-4-4-4-4-4-4-4-|-6-6-6-6-6-6-6-6-6-6-6-6-6-6-6-6-|
 *first time, go back to the verse after the first chord. Second time, play the second chord


Chorus: x2
e|-----------------------------------------------------------------|
B|-----------------------------------------------------------------|
G|-------6---6----------6---6----------6---6-----3-3-3-3-6-6-6-6---|
D|-8--8xx6---6----8--8xx6---6----8--8xx6---6-----1-1-1-1-4-4-4-4---|
A|-8--8xx4---4----8--8xx4---4----8--8xx4---4-----1-1-1-1-4-4-4-4---|
D|-8--8xx4---4----8--8xx4---4----8--8xx4---4-----1-1-1-1-4-4-4-4---|


Outro: x4
e|---------------------------------------|
B|---------------------------------------|
G|---------------------------------------|
D|-4---4---4----4----8---8---8----8------|
A|-4---4---4----4----8---8---8----8------|
D|-4---4---4----4----8---8---8----8------|
 |                                       |
e|---------------------------------------|
B|-------------------6------------9---6--|
G|---------------6-------8---6-----------|
D|---------------------------------------|
A|---------------------------------------|
D|---------------------------------------|

Montana Tabs by Youth Lagoon

 -----------------------------------------------------------
                 Youth Lagoon - Montana
-----------------------------------------------------------

Tabbed by: Hunter Harpole
Email Address: Guitartabman@gmail.com

Obviously this song is all done with a piano and a couple synths for most of the song 
and the only guitar is in the full on jam at the end, strumming out the chords.  Here I 
have taken the piano and synth parts and converted them to guitar instead.

Tuning: Standard

Until verse 2, you will just pluck the strings with your fingers.

Also guitar-2 will be the whistle-sounding synth.

Intro:

e-|---------------|
B-|---------------|
G-|-6--------6--6-|  X2
D-|----------7----|
A-|-7--4--7--5--7-|
E-|-5-----------5-|

Verse 1:

e-|--------------------------------------------|
B-|--------------------------------------------|
G-|-6--------6--6--------6--6--------6--4--(6)-|  X2
D-|----------7-----------7-----------7--6--(7)-|
A-|-7--4--7--5--7--4--7--5--7--4--7--5--7--(5)-|
E-|-5-----------5-----------5------------------|

*Parentheses mean second time only

Break between verses:

e-|------------------------------------------------|
B-|------------------------------------------------|
G-|-------6-----------6-----------6-----------6----|
D-|----7-----7-----7-----7-----7-----7-----7-----7-|  X2
A-|-7-----------7-----------9-----------9----------|
E-|------------------------------------------------|

Break continued:

e-|---------------------------------------|
B-|---------------------------------------|
G-|-------6-----------6-----------6-------|
D-|----7-----7-----7-----7-----7-----7----|
A-|-5-----------5-----------5-----------5-|
E-|---------------------------------------|

Break guitar-2:

e-|-----------------------------16--14------14--16-----|
B-|-----14--15----------14--15----------15----------15-|
G-|-14--------------14---------------------------------|
D-|-------------16-------------------------------------|
A-|----------------------------------------------------|
E-|----------------------------------------------------|

Verse 2:

e-|------------------------------------------------|
B-|------------------------------------------------|
G-|-6--6--6--6--6--6--6--6--------------6--6--6--6-|
D-|-7--7--7--7--7--7--7--7--2--2--2--2--7--7--7--7-|
A-|-7--7--7--7--5--5--5--5--4--4--4--4--5--5--5--5-|
E-|-5--5--5--5--------------2--2--2--2-------------|

Full on jam at the end:

e-|-5----5----2----0-|
B-|-5----7----2----0-|
G-|-6----7----2----1-|
D-|-7----7----4----2-|
A-|-7----5----4----2-|
E-|-5---------2----0-|

*Start with one strum for every 4 beats(1 measure), and work up to 8 strums for every 4 
beats(1 measure)

Full on jam at the end, guitar-2:

e-|---------------------12----------------------12-|
B-|-14--12------------------14--12--12--12---------|
G-|---------14--14--11----------------------14-----|
D-|------------------------------------------------|
A-|------------------------------------------------|
E-|------------------------------------------------|

And that’s all folks!  I hope you had an easy time understanding this tab and enjoy 
playing this song in the future!  Thanks and if you have any suggestions, just comment or 
email me.  Also don’t forget to rate 5 stars!

Shine On Tabs by Soil

 Soil: Shine On

Transcribed by: mysticguitar77

YouTube Username: MysticGuitar77

Date last modified: July 12, 2013

Tuning: Drop A# (A#,F,A#,D#,G,C)

Riff 1 (light distortion)   "Shine on me..."
 C|--------------------------------------------------------------------|
 G|--------------------------------------------------------------------|
D#|--------------------------------------------------------------------|
A#|-5---5---7---7---5---5---7---7---5---5---7---7---10---10---10---6---|
 F|---0---0---0---0---0---0---0---0---0---0---0---0----0----0----0---0-|
A#|--------------------------------------------------------------------|

 C|---------------------------------------------------------------------|
 G|---------------------------------------------------------------------|
D#|---------------------------------------------------------------------|
A#|-5---5---7---7---5---5---7---7---5---5---7---7---10---10---12---12---|
 F|---0---0---0---0---0---0---0---0---0---0---0---0----0----0----0----0-|
A#|---------------------------------------------------------------------|
                                                                   ^
                                                ends here second time through

Riff 1 notes: Faint slide up/down to each note.

Play Riff 1 x2   "With more than..."

Riff 2 (full distortion)   "Make me see why..."
 C|--------------------------|
 G|--------------------------|
D#|--------------------------|
A#|--------------------------|   x3
 F|--------------------------|
A#|-7-5-7--7-5-7--7--5-7-5-7-|

1st ending:
 C|------------------------|
 G|------------------------|
D#|------------------------|
A#|--------------------0-0-|
 F|--------------------0-0-|
A#|-7-5-7--7-5-7--7--7-0-0-|

Play top half of Riff 2 x3, then second ending:
 C|--------------------------------------|
 G|--------------------------------------|
D#|--------------------------------------|
A#|---------------7/10-10-10-10-10-10-10-|
 F|---------------7/10-10-10-10-10-10-10-|
A#|-7-5-7--7-5-7--7/10-10-10-10-10-10-10-|

Riff 3   "I feel what you feel..."
 C|--------------------------------------------------------------|
 G|--------------------------------------------------------------|
D#|--------------------------------------------------------------|
A#|-7----5----10---3--5--7----5----10----10h12-12-12-10h12-12-12-|
 F|-7----5----10---3--5--7----5----10----10h12-12-12-10h12-12-12-|
A#|-7----5----10---3--5--7----5----10----10h12-12-12-10h12-12-12-|

Riff 3 notes: Just the chords, the strumming pattern is fairly
              straightforward.

Play Riff 3 x1

Fill 1
 C|--------------------------|
 G|--------------------------|
D#|--------------------------|
A#|--------------------------|
 F|--------------------------|
A#|-7-5-7--7-5-7--7--5-7-5-7-|

Play Riff 2 x1   "This will not fade away..."
Play Riff 3 x2   "I feel what you feel..."

Riff 4   "We will not go away..."
 C|----------------------------------------|
 G|----------------------------------------|
D#|----------------------------------------|
A#|-7----5----0----3----7----5----10----12-|
 F|-7----5----0----3----7----5----10----12-|
A#|-7----5----0----3----7----5----10----12-|

Riff 4 notes: Again, just the chords, listen to song for strumming pattern.

Play Riff 4 x1

Fill 2 (light distortion)
 C|--------------------------------------------------------------------|
 G|--------------------------------------------------------------------|
D#|--------------------------------------------------------------------|
A#|-5---5---7---7---5---5---7---7---5---5---7---7---10---10---10---6---|
 F|---0---0---0---0---0---0---0---0---0---0---0---0----0----0----0---0-|
A#|--------------------------------------------------------------------|

Play Riff 1 x1   "Shine on me..."
Play Riff 3 x2   "I feel what you feel..."
Play Riff 4 x1   "We will not go away..."
Play Riff 2 x1   "Shine on!

Youve Got Time Chords – Regina Spektor

 You've got Time (Theme Song of Orange is the new Black), Regina Spektor
-----------------------------------------------------------------------
tabbed by ZaB23


Intro: (also played in the chorus, behind Bbm)
e|---------------------------|
h|---------------------------|
g|---------------------------|
d|---------------------------|
a|---------------------------|
e|--6^8-6--6^8-6-6^9-6-6^8-6-|

 Bbm 
The animals, the animals
 Ab Bbm 
Trapped, trapped, trapped 'till the cage is full
The cage is full, Stay awake
 Ab Bbm 
In the dark, count mistakes
The light was off but now it's on
 Ab Bbm 
Searching the ground for a bitter song
The sun is out, the day is new
 Ab 
And everyone is waiting, waiting on you

     Ebm Db Fm Ebm Bbm 
And you've got ti--------me  
     Ebm Db Fm Ebm Bbm 
And you've got ti--------me  

 Gb Db 
Think of all the roads
 Gb Db 
Think of all their crossings
 Gb Db 
Taking steps is easy
 Db Db/C *     Bbm 
Standing still is hard
 Gb           ( Ab )    Db 
Remember all their faces
 Gb           ( Ab )    Db 
Remember all their voices
 Gb Db 
Everything is different
     Db/C *        Bbm 
The second time around

interlude:**
 Gb Fm Ebm Db Bbm Gb Fm Ebm Db Bbm Gb Fm Ebm Db Bbm Bbm 
The animals, the animals
 Ab Bbm 
Trapped, trapped, trapped 'till the cage is full
The cage is full, Stay awake
 Ab Bbm 
In the dark, count mistakes
The light was off but now it's on
 Ab Bbm 
Searching the ground for a bitter song
The sun is out, the day is new
 Ab 
And everyone is waiting, waiting on you

     Ebm Db Fm Ebm Bbm 
And you've got ti--------me  
     Ebm Db Fm Ebm Bbm 
And you've got ti--------me 
     Gb Fm Ebm Dbm Bbm 
And you've got ti--------...


Some notes if you got problems playing along:
*or just play an H
the Ab is not necessary, but it's played with the left hand on piano and sounds quite nice
** the first time is hard to hear, you my catch it at the Ebm (it's easy
when you've got the "You've got time" part in your ear, it's also played 
quite quiet by piano)

Midnight Spookshow Tabs by Calabrese V3

 Song: Midnight Spookshow
Artist: Calabrese
Album: 13 Halloweens
Tuning: Standard
------------------------------------------------|

Intro:
E|--------------------------------|
B|--------------------------------| 
G|-5------5------5----------------|
D|-5-5555-5-6666-5-5555-3333333-6-| 
A|-3-5555-3-6666-3-5555-3333333-6-| 
E|---3333---4444---3333-1111111-4-| (x2)

Chorus:
E|---------------------------------|  [Woah (woah),
B|---------------------------------|   Woah, Midnight Spookshow!]
G|-5-55555-----------------8-88888-|
D|-5-55555-5-55555-6-66666-8-88888-|
A|-3-33333-5-55555-6-66666-6-66666-|
E|---------3-33333-4-44444---------| (x2)

Verse 1:
E|---------------------------------|  [Spirits return with laughs and chills,
B|---------------------------------|   Living zombies and graveyard thrills. 
G|-5-55555-------------------------|   Smell and feel your flesh sizzle and sputter,
D|-5-55555-6-66666-8-88888-5-55555-|   While being burned alive.]
A|-3-33333-6-66666-8-88888-5-55555-|
E|---------4-44444-6-66666-3-33333-| (x2)

Bridge 1:
E|---------------------------------|
B|---------------------------------|
G|---------------------------------|
D|-6-66666-6-66666-5-55555-5-55555-|
A|-6-66666-6-66666-5-55555-5-55555-|
E|-4-44444-4-44444-3-33333-3-33333-| (x2)

Verse 2:
E|---------------------------------|  [Horror strikes at midnight tonight,
B|---------------------------------|   Living mummy, terror of the tomb. 
G|-5-55555-------------------------|   Weird woman, unearthly creature,
D|-5-55555-6-66666-8-88888-5-55555-|   Face-to-face with the Spirit World.]
A|-3-33333-6-66666-8-88888-5-55555-|
E|---------4-44444-6-66666-3-33333-| (x2)

Bridge 2:
E|---------------------------------|  [On second time through:
B|---------------------------------|   The Spirit World.]
G|---------------------------------|
D|-6-66666-6-66666-5-55555-5-55555-|
A|-6-66666-6-66666-5-55555-5-55555-|
E|-4-44444-4-44444-3-33333-3-33333-| (x2)

Outro:                                    End On:
E|--------------------------------|      E|---|
B|--------------------------------|      B|---|
G|-5------5------5----------------|      G|-5-|
D|-5-5555-5-6666-5-5555-3333333-6-|      D|-5-|
A|-3-5555-3-6666-3-5555-3333333-6-|      A|-3-|
E|---3333---4444---3333-1111111-4-| (x2) E|---|


Song Order:
Intro
Chorus
Verse 1
Bridge 1
Chorus
Verse 2
Bridge 2
Chorus (x2)
Outro
------------------------------------------------|
Note: This is the first tab I've submitted in years, 
so forgive any mistakes and feel free to leave a 
comment below!
- Yami Rotten