Tag: Second Time

The Distance Tabs by A V2

 Artist: A
Song: The Distance
Album: Hi-Fi Serious
Tuning: Drop D (DADGBe)

Not much to learn in this one - this is everything (except solo im afraid)

INTRO/VERSE 1
e|------|---------------------------------|
B|------|-1-1-----1---1---1-1-----1-------|
G|------|-----0-0---0---0-----0-0---0-----|
D|----0-|---------------------------------|
A|--3/0-|------------------------------0--|
D|--3/0-|---------------------------------|

e|----------------------------------------|
B|----------------------------------------|
G|----------------------------------------|
D|--0--10-10-0-10-12---0--13-13-0-13-15---|
A|--0--10-10-0-10-12---0--13-13-0-13-15---|
D|--0--10-10-0-10-12---0--13-13-0-13-15---|

VERSE 2
e|-----------|--------------------------------------|
B|-----------|--------------------------------------|
G|-----------|--------------------7-7-7-7--5-5-5-5--|
D|--5-5-5-5--|--2-2-2-2--5-5-5-5--7-7-7-7--5-5-5-5--|
A|--5-5-5-5--|--2-2-2-2--5-5-5-5--5-5-5-5--3-3-3-3--|
D|--5-5-5-5--|--2-2-2-2--5-5-5-5--------------------|

second time through at the end do this:
e|-----------------------------------|
B|--2-2-2-2--3-3-3-3--2-2-2-2--------|
G|--2-2-2-2--2-2-2-2--2-2-2-2--------|
D|--2-2-2-2--2-2-2-2--2-2-2-2--------|
A|--0-0-0-0--0-0-0-0--0-0-0-0--------|
D|-----------------------------------|

CHORUS
I cant tab out the 'feel' of this bit but you get the idea - just funk it up a bit!
e|-------------------------------------------------|
B|--7-7----7----7---7---7-----8----8---8--8---8-8--|
G|--7-7----7----7---7---7-----7----7---7--7---7-7--|
D|-------0----0---0---0------0---0---0---0---0-----|
A|-------------------------------------------------|
D|-------------------------------------------------|

e|-------------------------------------------------|
B|--5-5---5---5---5-----8-8---8---8---7---7---7----|
G|--7-7---7---7---7-----7-7---7---7---7---7---7----|
D|------0---0---0------0----0---0----0---0---0-----|
A|-------------------------------------------------|
D|-------------------------------------------------|

Theres a mental solo with wah that I simply cant figure out, otherwise all there!

Cheers

Lost It All Tabs by Avenged Sevenfold V2

 Lost It All
Avenged Sevenfold
This is my first Tab. Sorry if I mess up certain parts.

Drop D tuning


Intro
e|---------------------------------------------------------------------|
B|---------------------------------------------------------------------|
G|---------------------------------------------------------------------|
D|--0-1-1-1-0---0--0/1---0-1-1-1-0---1/3--3/8---0-1-1-1-0---0--0/1-----|
A|--0-1-1-1-0---0--0/1---0-1-1-1-0---1/3--3/8---0-1-1-1-0---0--0/1-----|
D|--0-1-1-1-0---0--0/1---0-1-1-1-0---1/3--3/8---0-1-1-1-0---0--0/1-----|
After you play this a second time, you play F four times instead of two.

e|---------------------|  -------------------------|
B|---------------------|  -------------------------|
G|---------------------|x2-------------------------|
D|--0-1-1-1-0---3---3--|  ---3---3---3---3---------|
A|--0-1-1-1-0---3---3--|  ---3---3---3---3---------|
D|--0-1-1-1-0---3---3--|  ---3---3---3---3---------|


Verse (1 time without singing, 4 times with singing)
e|---------------------------------------|
B|---------------------------------------|
G|---------------------------------------|
D|--0---0---0-0---0---0-0----------------|
A|--0---0---0-0---0---0-0---5/8\5--------|
D|--0---0---0-0---0---0-0--------6\3/6---|

Pre-Chorus
Guitar 1
e|----------------------------------------------------------|
B|-----------------------------------------------------8----|
G|---------------------------------------------------6---6--|x2
D|--2---2-2-2-2---2---2-2-2-2---2---2-2-2-2------5-8--------|
A|--2---2-2-2-2---2---2-2-2-2---2---2-2-2-2---/7------------|
D|--2---2-2-2-2---2---2-2-2-2---2---2-2-2-2-----------------|

Guitar 2
e|----------------------------------------------------------|
B|----------------------------------------------------------|
G|-----------------------------------------------------9----|x2
D|--2---2-2-2-2---2---2-2-2-2---2---2-2-2-2----------8---8--|
A|--2---2-2-2-2---2---2-2-2-2---2---2-2-2-2--------7--------|
D|--2---2-2-2-2---2---2-2-2-2---2---2-2-2-2---/7-8----------|

Chorus
Guitar 1
e|----------------------------------------------------------|
B|----------------------------------------------------------|
G|---/10------10\9------9/12------12\7---6------------------|
D|----------------------------------------------------------|
A|----------------------------------------------------------|
D|----------------------------------------------------------|

e|----------------------------------------------------------|
B|----------------------------------------------------------|
G|---/10------10\9---12---14------14/15---14----------------|
D|----------------------------------------------------------|
A|----------------------------------------------------------|
D|----------------------------------------------------------|

Guitar 2
e|----------------------------------------------------------|
B|----------------------------------------------------------|
G|----/7------7\5------5\4------4\3---2---------------------|
D|----------------------------------------------------------|
A|----------------------------------------------------------|
D|----------------------------------------------------------|

e|----------------------------------------------------------|
B|----------------------------------------------------------|
G|---/7------7\5---9---10------10/12---10-------------------|
D|----------------------------------------------------------|
A|----------------------------------------------------------|
D|----------------------------------------------------------|

Guitar 3
e|----------------------------------------------------------|
B|----------------------------------------------------------|
G|--------5------4------3------2----------------------------|
D|-0------5------5------3------2----------------------------|
A|-0------3------2------1------0----------------------------|
D|-0----------------------------------

Three Little Birds Chords – Bob Marley V5

 I've never submitted a tab before but I was dissatisfied with the tabs I found so 
I will give it a shot. I love this song.


(chorus)
       A A A7 
Don't worry about a thing
       D7 A 
cause every little thing gonna be alright.
               A A A7   
Singin' don't worry about a thing
       D7 A 
cause every little thing gonna be alright.

(verse)
              A 
Rise up this mornin'
                 E E7 
smiled with the rising sun
              D 
three little birds
             Bm 
perch by my doorstep
          A 
singing sweet songs
             E E7 
of melodies pure and true
       D           ( E7 )          A  
sayin' "this is my message to you".

(chorus) (verse) (chorus)

The final chorus is repeated until the song fades out with some minor improvised 
changes in the wording. 
For those anal retentive types, the word "with" is changed to "at" the second time 
the verse is sung. I hope you enjoy!

Zoe Zoe Chords – Birdie Hilltop

 This is my favorite song and I'm not sure if anyone will
even view this tab but I'm putting it out there anyway. 
Listen to the song for timing, it's not terribly difficult.

Capo 1: 

Intro:  C ,  G ,  Am ,  E ,  F ,  Am ,  C ,  G  (x2, second time hold the  G  for longer)

Verse 1:

 E ,  F ,  Am ,  C ,  G  
( C ,  G ,  Am ,  E ) Zoe Zoe, I've got good news. You've been ac-
( F ,  Am ,  C ,  G ) -cepted to a school, where the kids go when they're cool. 

Verse 2:

( C ,  G ,  Am ,  E ) Lazy Daisy, I can't explain. How bad I 
( F ,  Am ,  C ,  G ) feel when you're away, and I guess I'll be this way. (hold the G for longer here)

Verse 3:
( C ,  G ,  Am ,  E ) For a fortnight, times twenty two and until it's over, I'll be 
( F ,  Am ,  C ,  G ) struggling not to have  A  breakdown everyday. I might be

Bridge 1: 

( Am ,  E ,  F ) stupid but I'm not...insane
( C ,  F ,  C ,  F ,  C )
(G) Oh shit!

Verse 4: 

( C ,  G ,  Am ,  E ) Holy moly! It's all in vain. I'm stuck in 
( F ,  Am ,  C ,  G ) the US of A, and you're oh so far away. 

Verse 5: 

( C ,  G ,  Am ,  E ) Holy lonely, I think I'm through. I'm giving
( F ,  Am ,  C ,  G ) up looking for you, in the closet of my room. (hold G here)

Verse 6:

( C ,  G Am ,  E ) It might sound crazy, but I know it's true: I might be alone but I still got
( F ,  Am ,  C ,  G ) you. Practicing, somersaults inside my mind. I might be 

Bridge 2:

( Am ,  E ,  F ) gentle, but I'm not....kind.
(slowing down) ( C ,  F ,  C ,  F ,  C ,  G )

Outro chords (slower): 
 Am ,  E ,  F ,  C ,  E ,  Am ,  E ,  F ,  C ,  G ,  Am ,  E ,  Am

The Vampyre Of Time And Memory Tabs by Queens Of The Stone Age V3

 Tabbed by:me
E-mail:i8yourmom4lunch@yahoo.com

I took some piano tabs, some guitar tabs and mixed them and gave them some flavor 'til
it sounded good to me. Still working out the middle part, so hopefully I come back to it
:D  This is my first tab too, not quite patient enough for this lol but I really love 
this song and want to share.

Tuning: standard

Verse

    finger pick                   give few strums then slide and repeat
e|--5----5---5--3-1-3---5-----5---1/5------------------------------------|
B|--6----6---6--------------------1/5------------------------------------|
G|--7----7--------------7-----7---2/6------------------------------------|
D|--7----7---7----------7-----7---3/7------------------------------------|
A|-5--5-5-------------------------3/7------------------------------------|
E|---------8-----------7---7-7----1/5------------------------------------|

Chorus - strum and pick alternatively  ...play strings open during chord changes second time
e|-6--7-5------------------------------------------------------------------------------|
B|-6--x-5-----(x 2)--------------------------------------------------------------------|
G|-7--7-6------------------------------------------------------------------------------|
D|-8--6-7------------------------------------------------------------------------------|
A|-8----7------------------------------------------------------------------------------|
E|-6----5------------------------------------------------------------------------------|

Mothers Song – Anthony W Carter chords

 Mothers Song - Anthony W Carter
Transcription by Hanoihancock
Standard Tuning - Capo 2nd Fret

Instrumental Intro
2x  D F# G Asus  - hold on  A  4 counts after repeat 

Verse
 D A G A        
Tying little shoe laces
 D A G A      
Wiping off dirty faces
 D A G A      
Are just a couple of things that mother 
      D G A            
will do

Bridge
       B#min                 A G A 
With a kool-aid smile and a sparkle in your eyes 
  B#min           A G A      
I wrap you in my arms and whisper this advice

Chorus
    D F# G Asus        
Be strong be kind be patient and in time 
             D F# G Asus        
youll find out my son what true love is all about
    D F# G Asus        
Be faithful and be true  Show love in all you do
             D F# G A          - repeat  G  &  A  second time
Then youll know just how you make your mother proud

Repeat Verse-Bridge-Chorus with lyrics below

Outro
2x  D F# G Asus  -  Asus  ritards into  A  then resolves on  D 

Lyrics
Now little boy days have passed and youve grown up so fast
But in my heart that little boy will never be far
So on this blessed day theres so much I want to say
But above all I thank god for the man that you are
With a tender smile and a twinkle in your eyes
I wrap you in my arms and whisper this advice
Be strong Be kind  Be patient and in time 
youll find out my son what true love is all about
Be faithful and be true Show love in all you do 
Then youll know just how you make your mother proud

Evil Twin Chords – Arctic Monkeys

 i don't know if the chords are right! please tell me about mistakes you might find!
intro
 F# A E F# A E 
You've never met before
But still she greets you like a long lost rock and roll
She's definitely one of those
But you'll go wherever she goes

             F# A E 
Oh when my body and my mind
Both start talking at the exact same time
Try'na think of ways to make her mine
But they're difficult to find

          D A B 
It's not what I need
No, your love's not what I need
So don't give it to me

                D A B           
And she said: "Oh, well I know this will sound cold
But I really have to go
Oh it's not that I'm not free
There's nowhere I need to be
It's just your love's not what I need
So don't give it to me"

 F# A E D A B 
It's not what I need
No, your love's not what I need
So don't give it to me

           C#m B     
She said: Baby, how can I believe you?
 C#m B     
How can I believe you when you can't believe your luck?
 C#m A B 
No point sticking to the plan when it's going slow

             F# A E 
It's more a hunger than a thirst
She'll break your heart the second time
Before you know about the first
Looks well-equipped to leave you in the lurch
But you'll let her do your worst

And it's not hard to tell
It's obvious the other angels faces fell
When she told them that she had to go
Swap her wings and overcoat for something colorful

            D A B 
It's not what I need
No, your love's not what I need
So don't give it to me

same chords goes on!

(No, your love's not what I need)
So don't give it to me

(No, your love's not what I need)
So don't give it to me

(No, your love's not what I need)
So don't give it to me

Your love's not what I need

Kiss Tried To Kill Me Tabs by Black Spiders

 Hi this is my first time tabbing!
I noticed that there are no Black Spiders Tabs so i decided to attempt to write my
own. Rate what you think I deserve

Song: Kiss Tried To Kill Me
Artist: Black Spiders
Tuning: E Standard

Sorry but this is only the rhythm guitar I couldn't figure out the lead parts

Intro (Riff 1 ):
Drum Solo...

E|-----------------------------------------------------------------------------------------|
B|-----------------------------------------------------------------------------------------|
G|-----------------------------------------------------------------------------------------|
D|--2--4--4--2--4--2--4--7--7--7--7--7--7--7--7--2--2--2--2--2--2--2--2--2--4--2--4--2--4--|
A|--2--4--4--2--4--2--4--7--7--7--7--7--7--7--7--2--2--2--2--2--2--2--2--2--4--2--4--2--4--|
E|--0--2--2--0--2--0--2--5--5--5--5--5--5--5--5--0--0--0--0--0--0--0--0--2--2--0--2--0--2--|

Do this twice

Riff 2:

E|--------------------------|
B|--------------------------|
G|--------------------------|
D|-2-4-4----7-7-2--2-2-4-4--|
A|-2-4-4----7-7-2--2-2-4-4--|
E|-0-2-2----5-5-0--0-0-2-2--|

repeat this 9 times

on the 10th time do this

E|------------------|
B|------------------|
G|------------------|
D|-2-4-4----7-7-2-2-|
A|-2-4-4----7-7-2-2-|
E|-0-2-2----5-5-0-0-|

Then go straight into Riff 3:

E|---------------------------------------------------------------------|
B|---------------------------------------------------------------------|
G|-4-4-4-4-4-4-4-4-4-2-2-2-2-2-2-2-2-2---------------------------------|
D|-4-4-4-4-4-4-4-4-4-2-2-2-2-2-2-2-2-2-2-2-2-2-2-2-2-2-2-4-4-2-4-4-2-4-|
A|-2-2-2-2-2-2-2-2-2/4-4-4-4-4-4-4-4-4-2-2-2-2-2-2-2-2-2-4-4-2-4-4-2-4-|
E|-------------------------------------0-0-0-0-0-0-0-0-0-2-2-0-2-2-0-2-|

and on the second time play this:

E|-------------------------------------------------------------------|
B|-------------------------------------------------------------------|
G|-4-4-4-4-4-4-4-4-2-2-2-2-2-2-2-2-6-6-6-6-6-6-6-6-6-6-6-6-6-6-4-2---|
D|-4-4-4-4-4-4-4-4-2-2-2-2-2-2-2-2-6-6-6-6-6-6-6-6-6-6-6-6-6-6-4-2-4-|
A|-2-2-2-2-2-2-2-2-0-0-0-0-0-0-0-0-4-4-4-4-4-4-4-4-4-4-4-4-4-4-2-0-4-|
E|-----------------------------------------------------------------2-|
which then goes back into riff 1 ( the chorus )

Key change:

E|-----------------------------------------------------------------|
B|-----------------------------------------------------------------|
G|-----------------------------------------------------------------|
D|-4-6-6-4-6-4-6-9-9-9-9-9-9-9-9--4-4-4-4-4-4-4-4-6-6--4-6----4-6--|
A|-4-6-6-4-6-4-6-9-9-9-9-9-9-9-9--4-4-4-4-4-4-4-4-6-6--4-6----4-6--|
E|---4-4---4---4-7-7-7-7-7-7-7-7------------------4-4----4------4--|

At War With The Thirst Tabs by Fearless Vampire Killers

  --------------------------------------------------------------------------
At war with the thirst- Fearless vampire Killers
---------------------------------------------------------------------------
Tabbed by: Kieran Satchell
E-mail:Kazkieran@hotmail.co.uk
If you wish to use this tab for any editing purposes or guitar tutorials/videos
please reference me as I took many hours making this and feel that I deserve some credit 
for making the tab,
I take no credit for the song however. Sorry, couldn't work out the solo.

Tuning: Standard EADGBE

Lead guitar, Main riff
e|-------------------------------------------------------------------------|
B|-18Brb-16—18p-16-----18brb-16-18p-16-----18brb-16—18p-16-----------------|
G|---------------------------------------------------------20~-------------|
D|------------------22~----------------21~---------------------------------|
A|-------------------------------------------------------------------------|
E|-------------------------------------------------------------------------|

e|------------------------|
B|-18Brb-16—18p-16-18~----|
G|------------------------|X2 after the second time, the guitar slides down
D|------------------------|   quickly from the 18 vibrato (0:26)
A|------------------------|
E|------------------------|

Rhythm guitar:

e|-------------------------------------------------------------------------|
B|-------------------------------------------------------------------------|
G|-------------------------------------------------------------------------|
D|-------------------------------------------------------------------------|
A|-8-8-10-8--8-8-10-8--8-8-10-8--8-8-10-8—6-6-8-6-6-6-8-6-6-6-8-6-6-6-8-6--|
E|-------------------------------------------------------------------------|

e|-------------------------------------------------------------------------|
B|-------------------------------------------------------------------------|
G|-------------------------------------------------------------------------|
D|------8------8------8------8------10------10----x-x-x-x-x-x--------------|
A|--6-6--6-6-6--6-6-6--6-6-6--6--8-8--8-8-8---8---x-x-x-x-x-x--------------|
E|------------------------------------------------x-x-x-x-x-x--------------|


e|-------------------------------------------------------------------------|
B|-------------------------------------------------------------------------|
G|-12-12-12-12-12-12-12-12-12-7-7-7-7-7-7-7-7-7-11-11-11-11-11-11-11-11-11-|
D|-x--x--x--x--x--x--x--x--x--x-x-x-x-x-x-x-x-x-x--x--x--x--x--x--x--x--x--|
A|-10-10-10-10-10-10-10-10-10-5-5-5-5-5-5-5-5-5-9--9--9—-9—-9--9--9--9--9--|
E|-------------------------------------------------------------------------|

e|-------------------------------------------------------------------------|
B|-------------------------------------------------------------------------|
G|-7-7-7-7-7-7-7-7-7-15-15-15-15-15-15-15-15-15-17-17-17-17-17-17-17-17-17-|
D|-x-x-x-x-x-x-x-x-x-x--x--x--x--x--x--x--x--x--x--x--x--x--x--x--x--x--x--|
A|-5-5-5-5-5-5-5-5-5-13-13-13-13-13-13-13-13-13-15-15-15-15-15-15-15-15-15-|
E|-------------------------------------------------------------------------|

Mute this chord until the start of the verse.
e|-------------------------------------------------------------------------|
B|-------------------------------------------------------------------------|
G|-------------------------------------------------------------------------|
D|-10-X-X-X-X-X-X-X-X-X-X-X-X-X-X-X-X-X------------------------------------|
A|-10-X-X-X-X-X-X-X-X-X-X-X-X-X-X-X-X-X------------------------------------|
E|-8--X-X-X-X-X-X-X-X-X-X-X-X-X-X-X-X-X------------------------------------|
VERSE: RYTEHM GUITAR (MUTING BETWEEN NOTES NEEDS TO BE FIGURED OUT YOURSELF)YOU CAN PICK 
IT UP REAL EASY! IT JUST SAVES SPACE ON THE TAB!

“When you go, would you promise me the world...”
e|------------------------------------------------------------------

Crittical Acclaim Tabs by Avenged Sevenfold

 So this is my first tab please leave feedback and comment on any thing i might have
missed some parts might be iffy since I learned it all by ear, but I'm about 99% sure
everything is right I played along to live videos where it's easier to hear if all the 
notes are correct. Just a note I don't have the fast parts for dueling guitars so please feel
free to add that.
-JVENGEANCE6661

Tuning: Drop D standard

Legend:
/=Slide up into
*=palm mute
b= bend
br=bend then release
ph= pinch harmonic
~= hold out or vibrato


Intro:

Guitar 1:
e:-/13-10----/13-12-15-17-15-13-12--/13-12-10-12-10~~~-----------|
b:-------10-----------------------13-----------------------------|
g:---------------------------------------------------------------|x2
d:---------------------------------------------------------------|
a:---------------------------------------------------------------|
d:---------------------------------------------------------------|

Guitar 2: Play on G1's second time around

e:-/17-13----/22-20-------------------/17-15-13-15-13~~----------|
b:--------15--------17-18-17-15----------------------------------|
g:------------------------------/17-14---------------------------|
d:---------------------------------------------------------------|
a:---------------------------------------------------------------|
d:---------------------------------------------------------------|

Guitar 3(this part is a little iffy):

e:---------------------------------------------------------------|
b:---------------------------------------------------------------|
g:------5~~~-3~~~--5~~~------------------------------------------|x2
d:-0~~~-5~~~-3~~~--5~~~-0~~~-------------------------------------|
a:-0~~~-3~~~-1~~~--3~~~-0~~~-------------------------------------|
d:-0~~~-----------------0~~~-------------------------------------|

Guitar 1:
e:-13-13-13-13-13-13-13-13---------------------------------------|
b:-16b---16b---16b---16b-----------------------------------------|
g:---------------------------------------------------------------|X4
d:---------------------------------------------------------------|
a:---------------------------------------------------------------|
d:---------------------------------------------------------------|

Guitar 2:
e:-10-10-10-10-10-10-10-10---------------------------------------|
b:-13b---13b---13b---13b-----------------------------------------|
g:---------------------------------------------------------------|X4
d:---------------------------------------------------------------|
a:---------------------------------------------------------------|
d:---------------------------------------------------------------|

Guitar 3:
e:---------------------------------------------------------------|
b:---------------------------------------------------------------|
g:---------------------------------------------------------------|
d:---------------------------------------------------------------|
a:---------------------------------------------------------------|
d:00000000000000000000000000000000000000000000-------------------|
  ********************************************

Pre Verse:

Guitar 1:
e:-----------------13----------------------16---------------|
b:-----------------16b-X6------------------19b--------------|
g:----------------------------------------------------------|
d:----------------------------------------------------------|
a:----------------------------------------------------------|
d:-0-0-0-0-0-0-0-0---------0-0-0-0-0-0-0-0------------------|
   * * * * * * * *         * * * * * * * *
Guitar 2:
e:-----------------10----------------------13---------------|
b:-----------------13b-X6------------------16b--------------|
g:----------------------------------------------------------|
d:----------------------------------------------------------|
a:----------------------------------------------------------|
d:-0-0-0-0-0-0-0-0------

Misplaced Memories – MxPx Chords

Misplaced Memories
MXPX
The Ever Passing Moment
Copyright: 2000 A&M Records/Tooth & Nail Records
Track: 15

Note: All lowercase chords mean play an octave higher. Example: E= 
0.3.3.2.0.0; e=12.14.14.13.12.12



Intro:

Bm G e g Bm G D D# e f (Repeat 2X)



Verse 1:

C#                           F#        Bm
If I could take what I've learned,

                          D  e         C#
From all the mistakes I've made.

                           F#          Bm
From the pages that I've turned,

                             D    E
From the lost games that I've played.



Pre-chorus:

    Bm
I'd be a better person for it,

G
Better than deciding to ignore it.

e
It meant so much to me,

F#
I wanna make things right with you and me.



Chorus:

B
Misplaced memories I've,

G
Retraced my steps so many times.

e
Well maybe it was meant to be,

F#                                   E      e     D     Bm (go straight into 
the intro)
And maybe all the answers are right here in front of me.



Repeat Intro 2X



Verse 2:

C#                          F#        Bm
If things could go differently,

                      D  e            C#
If we could learn to agree.

                    F#                Bm
I'm willing to apologize,

              D E
Because I realize..



Repeat Pre-Chorus



Chorus 2:

B
Misplaced memories I've,

G
Retraced my steps so many times.

e
Well maybe it was meant to be,

F#                                   E      e     D
And maybe all the answers are right here in front of me.

B
Misplaced memories I've,

G
Retraced my steps so many times.

e
Well maybe it was meant to be,

F#                                 E   e  D
What else can I say I let the past get to me.



Bridge:

G                D A        G
Seems like yesterday,

                              D A        G(Second time stop at A)
I was cruisin' down the Chico Way.


Repeat 2X



During the bass riff play a Bm
After it gets to the end of the bass riff play Bm A E e D fast, then right 
after start Chorus 2 and when you're done, end on a Bm.

That's the whole song. Hope it helped. Sounds good once you get the speed 
and strumming down. Questions or anything my email is drew09
-Andrew

Mirrors Tabs by Justin Timberlake V2

 Intro 
E||-----------------------------------------------|
B||---11 11 11-----11 11 11----------9998888888888|
G||888--------88777--------77---------------------|
D||--------------------------10 10 10-------------|
A||-----------------------------------------------|
E||-----------------------------------------------| Repeat 2-5 as wish

VERSE: Cm E||-3-  Gm E||-3- Fm E||-1- AbM E||-4-
          B||-4-     B||-3-    B||-1-     B||-4-
          G||-5-     G||-3-    G||-1-     G||-5-
          D||-5-     D||-5-    D||-3-     D||-6-
          A||-3-     A||-5-    A||-3-     A||-6-
          E||-3-     E||-3-    E||-1-     E||-4-
SECOND TIME AROUND Cm E||-3-  Gm E||-3- Fm E||-1- B(DIS)E||---
                      B||-4-     B||-3-    B||-1-       B||-3-
                      G||-5-     G||-3-    G||-1-       G||-1-
                      D||-5-     D||-5-    D||-3-       D||-3-
                      A||-3-     A||-5-    A||-3-       A||-2-
                      E||-3-     E||-3-    E||-1-       E||--- REPEAT 3 TIMES

COURSE: Eb E||-6- BbM E||-6- AbM E||-4- THIRD TIME ADD  Fm E||-8-- Cm-8--
           B||-6-     B||-6-     B||-4-   AND LEAVE OUT    B||-9--   -8--
           G||-8-     G||-7-     G||-5-     AbM            G||-10-   -8--
           D||-8-     D||-8-     D||-6-                    D||-10-   -10-
           A||-6-     A||-8-     A||-6-     THEN REPEAT    A||-8--   -10-
           E||-6-     E||-6-     E||-4-   3 TIMES WIHTOUT  E||-8--   -8--

STRUMMING PATTERN D D U D D U 

BRIDGE: Fm Cm BbM 
    STRUMMING PATTERN D U SCRATCH SCRATCH

Aren't you somethin' to admire?
'Cause your shine is somethin' like a mirror
And I can't help but notice
You reflect in this heart of mine
If you ever feel alone and
The glare makes me hard to find
Just know that I'm always
Parallel on the other side

'Cause with your hand in my hand and a pocket full of soul
I can tell you there's no place we couldn't go
Just put your hand on the glass
I'll be tryin' to pull you through
You just gotta be strong

'Cause I don't wanna lose you now
I'm lookin' right at the other half of me
The vacancy that sat in my heart
Is a space and now your home
Show me how to fight for now
And I'll tell you, baby, it was easy
Comin' back here to you once I figured it out
You were right here all along

It's like you're my mirror
My mirror staring back at me
I couldn't get any bigger
With anyone else beside of me
And now it's clear as this promise
That we're making two reflections into one
'Cause it's like you're my mirror
My mirror staring back at me, staring back at me

Aren't you somethin' an original
'Cause it doesn't seem merely a sample
And I can't help but stare, 'cause
I see truth somewhere in your eyes
I can't ever change without you
You reflect me, I love that about you
And if I could, I would look at us all the time

'Cause with your hand in my hand and a pocket full of soul
I can tell you there's no place we couldn't go
Just put your hand on the glass
I'll be tryin' to pull you through
You just gotta be strong

'Cause I don't wanna lose you now
I'm lookin' right at the other half of me
The vacancy that sat in my heart
Is a space and now your home
Show me how to fight for now
And I'll tell you, baby, it was easy
Comin' back here to you once I figured it out
You were right here all along

It's like you're my mirror
My mirror staring back at me
I couldn't get any bigger
With anyone else beside of me
And now it's clear as this promise
That we're making two reflections into one
'Cause it's like you're my mirror
My mirror staring back at me, staring back at me

Yesterday is history
Tomorrow's a mystery
I can see you lookin' back at me
Keep your eyes on me
Baby, keep your eyes on me

'Cause I don't wanna lose you now
I'm lookin' right at the other half of me
The vacancy that sat in my heart
Is a space and now your home
Show me how to fight for now (pleas

Make This Day Chords – Zac Brown Band

 Great song! 

Intro: Stays in E

Ohhhh... You got a quarter? E

 E 
I passed out last night and I never made it home
   A E 
I wound up on a bus to San Antone
        A E C#m 
Now my head hurts bad and I ain't wearing shoes
       A B E - F - F#m - G - G#m - A 
Gonna find my wallet and my way back home to you


 A 
We're gonna make this day
(Make this day)
          E 
A little better than the last
(Better than the last)
      B E 
It's amazing how slow a day like this can go
        A 
Find a way to wash away
(Way to wash away)
 E C#m 
Any regrets you have
                A B E 
Don't let this moment pass but live inside this day


 E 
I got cuffs on my hands, chains on my feet
   A E 
I got locked up for the second time this week
       A E C#m 
And I know I make you cry but girl, my love is true
           A B E - F - F#m - G - G#m - A 
I'm gonna find my wallet and my way back home to you


 A 
We're gonna make this day
(Make this day)
          E 
A little better than the last
(Better than the last)
      B E 
It's amazing how slow a day like this can pass
        A 
Find a way to wash away
(Way to wash away)
 E C#m 
Any regrets you have
                A B E 
Don't let this moment pass but live inside this day



 E 
Hey baby, yeah, I know, I kinda got held up

Yeah, I need you to come get me if you don't mind
                                               A   
Yeah, they got me again, hello? Hello? Hello?
 E B E - F - F#m - G - G#m A E C#m E B E 
Oh baby,              it's not my fault

 E 
Now I'm back on the street, thumb in the air
 A E 
Don't know how the hell that I got here
         A E C#m 
But I'm gonna hitch that ride if it's the last thing I do
       E B E 
Gonna find that wallet and bring it home to you

             A 
We're gonna make this day
(Make this day)
          E 
A little better than the last
(Better than the last)
      B E 
It's amazing how slow a day like this can pass
        A 
Find a way to wash away
(Way to wash away)
 E C#m 
Any regrets you have
                A B E E - F - F#m - G - G#m 
Don't let this moment pass but live inside this day

             A 
We're gonna make this day
(Make this day)
          E 
A little better than the last
(Better than the last)
         A E - Eb - D - Db - C - B - Bb   
Oh, now don't you let this life come whoop your 
        A 
Find a way to wash away
(Way to wash away)
 E C#m 
Any regrets you have
                A D - Eb - E    
Don't let this moment pass but live inside this day

        G - <spa

Until Her Heart Stops Tabs by Hawthorne Heights V2

 HAWTHORNE HEIGHTS
UNTIL HER HEART STOPS
STANDARD

Palm mute - *
Mute      - X
Let Ring  - ~


Intro 0:00 (second time through is different)
Gtr1
e|-----------------------------------------------------------|
B|-----------------------------------------------------------|
G|-----------------------------------------------------------|
D|-9~-------------9~---9~---9~-6~-------------6~---6~---6~-4~|
A|-9~-9-9-9-9-9-9-9~-9-9~-9-9~-6~-6-6-6-6-6-6-6~-6-6~-6-6~-4~|
E|-7~-7-7-7-7-7-7-7~-7-7~-7-7~-4~-4-4-4-4-4-4-4~-4-4~-4-4~-2~|
      * * * * * *    *    *       * * * * * *    *    *      |

------------------------------------------------------|
------------------------------------------------------|
------------------------------------------------------|
-------------4~---4~---4~-2~-------------2~---2~---2~-|
-4-4-4-4-4-4-4~-4-4~-4-4~-2~-2-2-2-2-2-2-2~-2-2~-2-2~-|
-2-2-2-2-2-2-2~-2-2~-2-2~-0~-0-0-0-0-0-0-0~-0-0~-0-0~-|
 * * * * * *    *    *       * * * * * *    *    * 
Gtr2
e|----------------------------------------------------------------|
B|----------------------------------------------------------------|
G|-8~-------------9~---9~---9~-8~-------------8~---8~---8~-6~-----|
D|-X~-------------X~---X~---X~-X~-------------X~---X~---X~-X~-----|
A|-6~-------------7~---7~---7~-6~-------------6~---6~---6~-4~-----|
E|----------------------------------------------------------------|

-------------------------------------------------|
-------------------------------------------------|
--------6~---6~---6~-4~----------8~8~8~8~11~11~11|
--------X~---X~---X~-X~----------X~X~X~X~X~-X~-X~|
--------4~---4~---4~-2~----------6~6~6~6~9~-9~-9~|
-------------------------------------------------|
                                                    X2

WHEN YOU GO THROUGH THE INTRO FOR THE SECOND TIME THE FIRST GUITAR CHANGES A 
LITTLE AND DOES THIS. GTR2 THE SAME.
e|-----------------------------------------------------------|
B|-----------------------------------------------------------|
G|-----------------------------------------------------------|
D|-9~-------------9~---9~---9~-6~-------------6~---6~---6~-4~|
A|-9~-9-9-9-9-9-9-7~-7-6~-6-7~-6~-6-6-6-6-6-6-6~-6-6~-6-6~-4~|
E|-7~-7-7-7-7-7-7-7~-7-6~-6-7~-4~-4-4-4-4-4-4-4~-4-4~-4-4~-2~|
      * * * * * *    *    *       * * * * * *    *    *      |

------------------------------------------------------|
------------------------------------------------------|
------------------------------------------------------|
-------------4~---4~---4~-2~-------------2~---2~---2~-|
-4-4-4-4-4-4-2~-2-1~-1-2~-2~-2-2-2-2-2-2-2~-2-2~-2-2~-|
-2-2-2-2-2-2-2~-2-1~-1-2~-0~-0-0-0-0-0-0-0~-0-0~-0-0~-|
 * * * * * *    *    *       * * * * * *    *    * 





CHORUSY PART 0:23
GTR1                                                         PICK-SLIDE AT END OF SECOND TIME
e|---------------------------------------------------------------------------------|
B|---------------------------------------------------------------------------------|
G|---------------------------------------------------------------------------------|
D|--9~~~-----------------------6~~~~--------------------2~~~~~~~~~~~~~-------------| X2
A|--9~~~-----------------------6~~~~--------------------2~~~~~~~~~~~~--------------|
E|--7~~~-----------------------4~~~~--------------------0~~~~~~~~~~~~--------------|

GTR2         X2                        X2                      X2|
e|-{-14-0-12-0-11-0-12-0-}---{-12-0-11-0-9-0-11-0-}---{-9-0-7-0-6-0-7-0-}-|
B|------------------------------------------------------------------------|
G|------------------------------------------------------------------------|
D|------------------------------------------------------------------------|
A|------------------------------------------------------------------------|
E|------------------------------------------------------------------------|


-6-0-7-0-9-0-11-0-12-0-11-0-12-0-13-0-|
-----------------

After My All – Justin McRoberts Chords

After My All by Justin McRoberts
From the album Father
Words and music by Justin McRoberts
Copyright  2000 Five Foot Six and a Half Music (ASCAP) / 
5 Minute Walk Music (ASCAP)

Six string acoustic guitar with standard tuning (EADGBE)
4/4 Time; tempo is about 88 beats per minute, but moves freely.

Intro:
 1               2               3               4
|---------------|---------------|----------.----|---------------|
|----1-----3/5-5|---------------|----1-----3---1|---------------|
|--------------0|---------------|----------0---0|---------------|
|--2---2--------|---------------|--2---2-------2|---------------|
|0-------2-----3|---------------|0-------2-----3|---------------|
|---------------|---------------|---------------|---------------|
 1 . 2 . 3 . 4 . 1 . 2 . 3 . 4 . 1 . 2 . 3 . 4 . 1 . 2 . 3 . 4 .

Verse 1:

 5               6               7               8
|---------------|---------------|---------------|---------------|
|----1-----3/5-5|---------------|----1-----3---1|---------------|
|--------------0|---------------|--------------0|---------------|
|--2---2--------|---------------|--2---2-------2|---------------|
|0-------2-----3|---------------|0-------2-----3|---------------|
|---------------|---------------|---------------|---------------|
 1 . 2 . 3 . 4 . 1 . 2 . 3 . 4 . 1 . 2 . 3 . 4 . 1 . 2 . 3 . 4 .

 Sara took off again             Second time this week

 9               10              11              12
|---------------|---------------|---------------|---------------|
|----1-----3/5-5|------6---5---3|--------------2|---------------|
|------2-------0|--------------0|--------------2|---------------|
|--2------------|---------------|---------------|---------------|
|0-------2-----3|------5---3---1|--------------0|---------------|
|---------------|---------------|---------------|---------------|
 1 . 2 . 3 . 4 . 1 . 2 . 3 . 4 . 1 . 2 . 3 . 4 . 1 . 2 . 3 . 4 .

 she calls with 'help me, man' and I'm running to her

 13              14              15              16
|---------------|---------------|---------------|---------------|
|----1-----3/5-5|---------------|----1-----3---1|---------------|
|--------------0|---------------|--------------0|---------------|
|--2---2--------|---------------|--2---2-------2|---------------|
|0-------2-----3|---------------|0-------2-----3|---------------|
|---------------|---------------|---------------|---------------|
 1 . 2 . 3 . 4 . 1 . 2 . 3 . 4 . 1 . 2 . 3 . 4 . 1 . 2 . 3 . 4 .

 And after she comes down          somewhere 'round 3 a.m.

 17              18              19              20      T  T  T
|---------------|---------------|---------------|--------------0|
|----1-----3/5-5|------6---5---3|--------------2|--------2--3---|
|--------------0|--------------0|--------------2|--------2------|
|--2---2--------|---------------|---------------|---------------|
|0-------2-----3|------5---3---1|--------------0|--------0------|
|---------------|---------------|---------------|---------------|
 1 . 2 . 3 . 4 . 1 . 2 . 3 . 4 . 1 . 2 . 3 . 4 . 1 . 2 . 3 . 4 .

 you find me on my knees, looking for some strength a-gain; af-ter my

Chorus:

 21              22      T  T  T 23              24      T  T  T
|1---------.----|--------------0|1---------3----|--------------0|
|3---------1---3|--------2--3---|3---------1---3|--------2--3---|
|----------0---0|--------2------|--------------0|--------2------|
|0--------------|---------------|0--------------|---------------|
|------3--------|--------0------|------3--------|--------0------|
|--------------3|---------------|--------------3|---------------|
 1 . 2 . 3 . 4 . 1 . 2 . 3 . 4 . 1 . 2 . 3 . 4 . 1 . 2 . 3 . 4 .

 All has been run through, I'll give what's left of me to you,know-ing in

 25              26              27              28
|1---------3----|---------------|------3--------|---------------|
|3---------1---3|---------------|----1--------

You Alone – David Crowder Band Chords

Band: David Crowder Band
You Alone
The Lime CD

Tuning: Standard 
 
Legend:   h=hammer on/hammer off if hammering 0 {2h0}  
          s=slide up     
INTRO: 
 
e---0-----0------0----0   
B----0-----0------0---0 
G----------------------  X2  
D----------------------          
A-------------0-------- 
E--0----4-------------- 
 
e----20-----2h0----2s4 
B----0------0--------- 
G--------------------- 
D--------------------- 
A----------------0---- 
E--0-----4------------ 
 
e----00-----0-----00 
B----2-------0-----0 
G------------------- 
D------------------- 
A---------------0--- 
E--0-----4----------   
 
 
Verse: 
 
Play this during the verse: 
 
e--0-----0------0- 
B---0-----0------0 
G----------------- 
D----------------- 
A------------0---- 
E-0----4---------- 
 
Verse 1: 
 
You are the only one I need, I bow all of me at your 
feet, I worship you alone.  
 
In between Verse 1, and Verse 2 play this 
 
e------00 
B-------0 
G-------- 
D-------- 
A--0h2--- 
E-------- 
 
Verse 2: 
 
You have given me more than I could ever have wanted  
and I want to give you my heart and my soul. 
 
After Verse 2, play this 
 
e-----20-----2h0-----2s4- 
B-----0------0----------- 
G------------------------  Play this X2 
D------------------------  Except the second time 
A-----------------0------  pluck the slide to the 4th  
E--0------4--------------  fret on the high e string  
                           hard.  
 
Repeat Verse 1, and Verse 2 
Play the same thing as the first time 
except after Verse 2, the song dumps into the Chorus. 
During the Chorus play the same thing as the verse.  
 
Chorus: 
 
You alone are Father, and you alone are good. 
And you alone are Savior, and you alone are God. 
 
After the Chorus play the same thing as after Verse 2, 
when played the first time.  
 
REPEAT VERSE 1, AND VERSE 2, Chorus {repeat Chorus x2} 
then play the bridge. 
 
BRIDGE: 
 
Im alive, Im alive, Im alive, Im alive. {x4} 
 
During the Bridge play the same thing as the Verses,  
and Chorus. 
 
After Bridge Repeat the Chorus {x1} 
 
ENDING: 
 
e----20-----0-----0-------00-----20----2h0------0--0-0-0 
B------------0----0--------0-----0-----0---------0-0---0 
G 
D 
A---------------0----0h2--------------------0----------- 
E--0-----4--------------------0-------4----------------- 
 

One – Craigs Brother Chords

One - Craig’s Brother

Intro 1
  Gtr 1
-|-----------------------------------------x2-| 
-|--------------------------------------------|
-|-9999999999999999--7------------------------|
-|----------------------9999999999999999--5---|
-|--------------------------------------------|
-|--------------------------------------------|

Gtr 2  (come in on second time of Gtr 1)
-|----------------x2-| 
-|-------------------|
-|-12121212121212121212121212121212-----------------------------------------|
-|-----------------------------------9--12121212121212121212121212121212--9-|
-|-------------------|
-|-------------------|

Gtr 1
-|-------------------|
-|-------------------|
-|-121212-111111-99--121212-111111-99---------------------------------------|
-|-------------------------------------121212-101010-99--121212-101010-99---|
-|-------------------|
-|-------------------|
Cont’d x2
-|-------------------|
-|-------------------|
-|-121212-111111-99--121212-111111-99---------------------------------------|
-|-------------------------------------121212-101010-99--101010-999-77------|
-|-------------------|
-|-------------------|

Gtr 2
-|--------------x1-|
-|-----------------|
-|-12121212121212121212121212121212---------------------------------------|
-|-----------------------------------9-121212-101010-99-101010-999-77-----|
-|-----------------|
-|-----------------|

Gtr 2
-|----------------------------------------------x2-|
-|-------------------------------------------------|
-|-9999999999--------------------------------------|
-|------------121212-101010-9999999999-777-555-----|
-|-------------------------------------------------|
-|-------------------------------------------------|

Intro 2
  Gtr 1
-|--------------------|
-|--------------------|
-|--------------------|
-|-------10----------9-------7------------------10--------9------7-----------|
-|-12-12----12-10-10---10-9-9-9------10-9--12-12--12-10-10-10-9-9-9----------|
-|------------------------------10-10-------------------------------10-10-x\-|

  Gtr 2
-|--|
-|--|
-|--14----12----11---11-12---17----16---14-----14----------|
-|--|
-|--12----10-----9----9-10--/15----14---12-----12-/--------|
-|----------------------------------------------------x\---|
Verse
  Gtr 1
-|------------------------------------------------------|      
-|------------------------------------------------------|
-|------------------------------------------------------|
-|--7----5----4-----4444--5555---7----5----444444444444-|
-|--7->--5->--4->---4444--5555---7->--5->--444444444444-|
-|--5----3----2-----2222--3333---5----3----222222222222-|
                                            ...........
  Gtr 2
-|--------------------------------------------

Disaster Tourism (Intro Only) – Mewithoutyou Chords

Hey, this is my first time tabbing but im 99% sure this is rite
Gtr.1
E------------------------------
B------------------------------
G---------5--------------------xa bunch
D-----7-----5-7----------------
A-3/5---5-------5-8-8-8-7-7-7-5
E------------------------------
Gtr.2(after second time)with some awesome effects
E-12/-12-8-5-5-5-8-8-5-5-8-8-5
B-----------------------------
G-----------------------------
D-----------------------------
A-----------------------------
E-----------------------------
Im not so sure about the second part but this is an amazing song and I wanted
to just give you guys something to work with.god bless


Oh Lord – You’re Beautiful – The Micah Tawlks Band Chords

Oh Lord, You’re Beautiful
The Micah Tawlks Band

Intro…

Acoustic D G A   D G A  Bm A  G A D G A

After acoustic, electric enters with…

       C#    A2        B
e------0----------0----0-----0------second time only-------
B------5---------------0--------0--------------------------
G------6---------------4-----------4-----------------------
D------6--------2------4-----------------------------------
A------4-----0---------2-----------------------------------
E------x---------------x-----------------------------------

Verse…

C#  A2  B
C#  A2  B
C#  E   C# B E
A2  B  E  (fill 1)

Repeat verse

Chorus…

A2   B C#
A2   B
A2   B C#
A2   B 


Harmonics over transition from verse to chorus and over second chorus
e----
B-------------------------12-12-12-12--7-7 (only first time)
G------
D--------------7-7-7-7-7--------------------------------------
A-----7-7-7---------------------------------------------------
E------

Bridge…

D A E

solo
e--------------------------5b7-7-7-7---------------
B-----5-5-5-5-5—7b8r7--5---------------------------
G--------------------------------------------------
D--------------------------------------------------
A--------------------------------------------------
E--------------------------------------------------repeat

e--------------------------------------------------
B-----5--3-----------------------------------------
G------------4--2--0-------------------------------
D-----------------------0--2-----------------------
A--------------------------------------------------
E--------------------------------------------------


Fill 1=
e-----0----0--------------------------
B-----0----0--------------------------
G-----1----1---1-h2--1----------------
D-----2--------2-----2----------------
A-----2-------------------------------
E-----0-------------------------repeat

Questions or Comments or other Micah Tawlks tabs, email Cradleinking102