Tag: Second Time

Nowl – The – Crucified Chords

The Nowl
The Crucified
Take Up Your Cross.

It is important to get the repetitive pattern 
of the guitar happening for the full effect of the song.
The vocals just fit into the music. The main way
 to play it, is by using the chord bases, to play the different 
notes, ie E string, A string D string etc.  Just pluck the individual
 notes.  As usual, just listen to the song to get the idea.

B#  G  E  A  x4

B#  		G     E	      A
I've been here for a million years
B#  	   G		    E	   A	etc.
It's only been the twinkling of an eye
This drawn out pain is so unbearing ??
My hair consumes the tears I cry

I never thought of pain so drawn out
Screams and gnashing all surround me
Over and over I keep remembering
I must bear this through eternity.
A		      A    F C G
And so I cannot turn away
 A    		F 	   C       G   etc..
This all keeps coming thru my mind
This all consumes my thought and emotions
This all keeps turning on thru time.

B#  	 G   	       E      A
I cannot bear this isolation, 
B#  	   G   	     E	      A     etc..
Where have all of my friends gone?
This was supposed to be the best time of my life,
My fate has shown me I was wrong.

I hear a voice every second time ??
Depart from me cursed one, I never knew you,
to weeping and gnashing of teeth.


Jesus please forgive me, I'm ready to accept you now,
But how will I know, you will  ??  ??    me, 
I had my chance, I turned it down
(I can't believe I turned it down).

A		      A    F C G
And so I cannot turn away
 A    		F 	   C       G   etc..
This all keeps coming thru my mind
This all consumes my thought and emotions
This all keeps turning on thru time.


Should be something like this.  Thanx.
Skippy.

Who Is Like You – The Micah Tawlks Band Chords

Who Is Like You
The Micah Tawlks Band

intro...

GUITAR 1
    A                  B               F#     D
e------------------------------------------------------
B------------------------------------------------------
G---2--2--x--2--2-x---4--4-x--4--4-x----------7--------
D---2--2--x--2--2-x---4--4-x--4--4-x---4------7-8x-----
A---0--0--x--0--0-x---2--2-x--2--2-x---4-8x---5--------
E--------------------------------------2---------------

Second time through play it all open without the chops at the beginning 

GUITAR 2
Come in on F#
e----------------------------------------------------
B-------------------------------------------------
G--13-------14---------------------------------------
D---x---8x--x---8x---------------------------------------
A--11-------12-----------------------------------------
E----------------------------------------------------

e---------------------------------------------
B---------------------------------------------
G---6-------9------13------14-----------------
D---x-8x----x-8x----x-8x----x—8x--------------
A---4-------7------11------12-----------------
E---------------------------------------------

Verse...

e---------------------------------------------
B---------------------------------------------
G----2-2---2-2-----------7-7~~~~--------------
D----2-2---2-2----4--4---7-7~~~~--------------
A----0-0---0-0----4--4---5-5~~~~--------------
E-----------------2--2------------------------

Repeat
    F#      D     F#     D
e----2------5------2-----5--------------------
B----2------5------2-----5--------------------
G----2------7------2-----7--------------------
D----4------7------4-----7--------------------
A----4------5------4-----5--------------------
E----2------5------2-----5--------------------
Let notes ring

Chorus... is the same as the intro except you play all the notes choppy. 

After the chorus play the second part of the intro were none of its choppy 
and guitar 2 plays the second part of it's intro

repeat verse and chorus

bridge...

the same as the second part of the chorus, but on the second part of the
bridge play Bm F# D

That’s pretty much it, go back to the chorus and end with the intro

Free – Miss Angie Chords

Free
Miss Angie
100 Million Eyeballs
       (c)Myrrh Records
Bryan (baxe@misi.net)



[Chorus_Riff]
e|--------|------------/------------|
B|--------|------------/------------|
G|--------|------------/---6-12--9--|
D|--5--2--|--6--12--9--/------------|
A|--5--2--|--4--10--7--/---4-10--7--|
E|--3--0--|------------/------------|
             (guitar1)     (guitar2)






[Intro]
                                                *
D|-------------------------------------------------|
A|--6-----6-----7-----7-----8-----8-----9-----9----| (2x)
E|-----0-----0-----0-----0-----0-----0-----0------0|


e|------------------------------|
B|--19--16--19--16--16--14--12--| (played at the * second time through)
G|------------------------------|


[Verse1]
D|-------------------------------------------------|
A|--6-----6-----7-----7-----8-----8-----9-----9----|
E|-----0-----0-----0-----0-----0-----0-----0-----0|
    Ive never seen you Never touched you Never never no
    But I believe in your Son
(repeat)


[Bridge]


B|---------------------------|
G|--11--11b--11--7--7--7--7--|  (2x)
D|---------------------------|


   A5-D5-C5   (2x)


[Chorus]


-chorus_riff-
You make me free
Yeah you do
Yeah you do
(repeat)


                                                *
D|-------------------------------------------------|
A|--6-----6-----7-----7-----8-----8-----9-----9----| (2x)
E|-----0-----0-----0-----0-----0-----0-----0------0|


e|------------------------------|
B|--19--16--19--16--16--14--12--| (played at the * second time through)
G|------------------------------|


[Verse2]
D|-------------------------------------------------|
A|--6-----6-----7-----7-----8-----8-----9-----9----|
E|-----0-----0-----0-----0-----0-----0-----0------0|
   There is no hope in me in me Oh no oh no oh no
   At Jesus' feet I fall
(repeat)


[Bridge]


[Chorus]


C#5            A5
Im captive but free
                E5
Im a slave unto the
          D5
Its not a dream
C#5     A5
    F-R-E-E
                   E5
Your word makes me free
          D5
Its not a dream


[Verse1]


[Solo]


B|---------------------------------------------|
G|--12b--12--9--12b--12--9--12b--12--9--9b--9--|  (2x)
D|---------------------------------------------|
  (rythm of solo is -chorus_riff-)


[Chorus]



[Ending]


B|--------------------------------------------|
G|--12b--12--9--9--9--9--12b--12--9--9--9--9--|
D|--------------------------------------------|


D|-----------------------------------------|
A|--6-----6-----7-----7-----8-----8-----9--|
E|-----0-----0-----0-----0-----0-----0-----|



well, here it is, the complete song.  Im not very good at the actual
lead parts, but you got my best guess.

Trampoline – Dakona Chords

Dakona – Trampoline
Words - Ryan McAllister
Music - Ryan McAllister/Scott Rogers
2003 Ryan McAllister/Scott Rogers (SOCAN)


Song is played in Ab, so play with capo on 1st for rhythm, also it may be
helpful for the lead to as well with the base Ab note at the start of the
chorus/intro. This is only the pattern of the song, the exact solo varies
in places.


Chords:(relative to capo 1)     Tab notation:
G – 355322    F  – 244322        ~ - vibrato     h – hammer on
C – x32010    Cm - x35543         - beginning and end of phrase
D - xx023x    D  - xx0232
(in verse)    (in chorus)                      


Rhythm Guitar:
Verse:             Chorus:        Bridge:
G - F D x4       G D C D x4   C - Cm-
C - - - then x1                 G D G D all x2


Lead Guitar:
Intro/Chorus:
e--------------------------------------------------------
B-----9-8-9-------9-8------------9-8-9-------------------
G-1h8---------1h8-----8-6-5--1h8---------6-5-8-5-6-5-3-5-
D--------------------------------------------------------
A--------------------------------------------------------
E--------------------------------------------------------
  G     D     C     D        G     D     C       D       
If you’re not using a capo then you can’t hammer on the 8 on
G. Instead you could slide up from 1 on G, or use 11 on A or
6 on D as the base note and either tap on or just not hammer.


Bridge:
       Hold 9~ on B for C – Cm-, then:
e-------------11----------------11----
B-8h9-9---8h9----9--8h9-9---8h9----9--
G-------------------------------------
D-------------------------------------
A-------------------------------------
E-------------------------------------
  G       D         G       D         


For variety in the song add the bridge solo at the
C chord second time through in the chorus. I think
they do this in the second chorus anyway. Enjoy!

Hands Down – Dashboard Confessional Chords

It's in standard tuning but a half step down: Eb Ab Db Gb Bb eb

Here's the intro lick:
E--------------------------------
B-------------------------------- 
G--------1---------1-2-----------
D------4---2-----4---------4/6--- 
A----2---------2---------2------- 
E--0---------0---------0--------- 

Riff ends with:
D-------4--1--
A----2--4--2--
E--0----------


Verse: These are the root chords, a second guitar is muting other notes
    Breath in for luck... 
E------------------------------------------------
B------------------------------------------------
G-----------6---------------4--------7-\-6-------  REPEAT 
D--2--------6(PM)---7-------4(PM)----7-\-6------- 
A--2(PM)----4-------7(PM)---2--------5-\-4------- 
E--0----------------5----------------------------

-He does a few stops here and there but it's all the same chords

Chorus:
    My hopes are so high...
     E     Abm     A     Abm           Repeat chorus:
E-----0-------4------5-------4-------------------
B-----0-------4------5-------4-------------------
G-----1-------4------6-------4-------------------
D-----2-------6------7-------6--------6-7-6------
A-----2-------6------7-------6-------4-----4-----
E---0-0-------4------5-------4------5--------5---

The second time through the chorus he ends it differently:
     E     Abm     A     Abm           
E-----0-------4------5-------4----------
B-----0-------4------5-------4----------
G-----1-------4------6-------4-----6----  To verse:
D-----2-------6------7-------6-----6--6-
A-----2-------6------7-------6-----4--6-
E---0-0-------4------5-------4--------4-

The second verse and second chorus are exactly the same (except for some stops in the 
verse) After the second chorus he breaks into the bridge/outro section:

Bridge/outro: These are the chords being played, a second guitar is picking through some 
other stuff which is at the bottom:

   Hands down this is the...            End On:
E---0----------0-----------------------   E--0---
B---0----------0--------9--------7-----   B--0---  
G---9---------14--------9--------8-----   G--9---
D---9---------14--------9--------9-----   D--9---   
A---7---------12--------7--------9-----   A--7---   
E--------------------------------7-----   E------

Guitar 2 is playing this during bridge:
E-------
B-------
G-9-8-9-8-9-8-9-8-9-8-9-8-9-8-9-6-8-9-8-9-8-9-6-8-9-8-9-8-9-8-- 
D------------------------------9-------------9----------------- 
A-------
E-------
   -over and over and over with slight variation at the end.

Well, I believe thats about it.  I'm sure there's stuff wrong but it's definitely close...
what a good song...  enjoy!

All Deliberate Speed – Mae Chords

Mae
All Deliberate Speed

standard tuning

intro:

e|-----0---0----------0-----0-----
B|---4---4---4--0---0-----0-------
G|----------------2-----2---------
D|--------------------------------
A|-------------------------------- x2
E|--------------------------------

intro pt 2. * - pick through the xxx697 part 8 times

e|-----0---0------------7*------------------
B|---4---4---4--0-----9-------4--5--4--0----
G|------------------6-----------------------
D|------------------------------------------
A|------------------------------------------
E|------------------------------------------

verse pt 1:

e|-0-0-0-0--0-0-0-0--0-0-0-0--4-4-4-4---0-0-0-0--0-0-0-0--7-7-7-7--0-0--------
B|4-4-4-4--5-5-5-5--7-7-7-7--0-0-0-0---4-4-4-4--5-5-5-5--9-9-9-9--7-7-7-5-4---
G|---------------------
D|---------------------
A|---------------------
E|---------------------

verse pt 2:

e|-0-0-0-0--0-0-0-0--0-0-0-0--4-4-4-4---0-0-0-0--0-0-0-0-----
B|4-4-4-4--5-5-5-5--7-7-7-7--0-0-0-0---4-4-4-4--5-5-5-5------
G|----
D|----
A|----
E|----

power part: weird rhythm, but these are the chords, up and down strokes... sorta

e|----------------------
B|---9---------9--------
G|---9---------9--------
D|---9---------9--------
A|---0---------x--------
E|-------------9--------

chorus 1: g1

e|--------------------------------------
B|--------------------------------------
G|--------------------------------------
D|--------------------------------------
A|---9-------11-------6-------7---------
E|---7-------9--------4-------5---------

chorus 1: g2

e|--------------------------------------
B|--------------------------------------
G|---11-----13--------8-------9---------
D|---x------x---------x-------x---------
A|---9------11--------6-------7---------
E|--------------------------------------

chorus 2 goes the same, but after the second time through, both guitars go:

e|-----------------------------
B|-----------------------------
G|---6-------6---9---8---------
D|---x---2---x---x---x---------
A|---4---0---4---7---6---------
E|-----------------------------

breakdown pt 1:

this is where it gets weird and confusing, tab wise...

strum this once each time they cycle through for 8 times(confused, just
listen to the song, you'll understand)

e|---0-----
B|---0-----
G|---2-----
D|---2-----
A|---x-----
E|---2-----

breakdown pt 2: for 8 times

g1: pick this part 8 times

e|---------0-------------0-------
B|-----------0-------------0-----
G|-------2-------------2---------
D|-----2-------------2-----------
A|---0---------------------------
E|-----------------2-------------

then go into this for 8 times(again, weird rhythm, just play to the song)

e|---------------------------------
B|---2--9--2--9-----2--9--2--9-----
G|---2--9--2--9-----2--9--2--9-----
D|---2--9--2--9-----2--9--2--9-----
A|---0--0--0--0-----x--x--x--x-----
E|------------------2--9--2--9-----

g2: pick this part for 16

e|-----7---7-------0---0----------0---------0-------
B|---9---9---9---4---4---4---0--2---2--0--2---2-----
G|--------------------------------------------------
D|--------------------------------------------------
A|--------------------------------------------------
E|--------------------------------------------------

song order:
intro
verse pt 1
verse pt 2
power part x2
chorus 1 riff x4
verse pt 1
verse pt 2
power part x2
chorus 2 riff x4
breakdown
end on x0999x

again, if you're confused, my apologies... it's hard to lay songs like 

Countdown – The – Mae Chords

Mae
The Countdown
The Everglow
Copyright Tooth and Nail Records
Tuning: Drop C# (C#G#C#F#A#D#)


Intro Lead Guitar:
D# | ---------------------------------------------|
A# | -9-4-5-------9-4-5---------------------------| 
F# | --------11---------11--4-8-9-6--4-2-4-6-8----| 4x
C# | ---------------------------------------------| 


On second time Rhythm starts to play this:
F# | -9---------|
C# | --9--------| Play that a lot


Verse 1 Lead:
D# | -------------------------------------------|
A# | -9-4-5-------9-4-5-------------------------|
F# | ---------11--------11--4-8-9-6--4-2-4-6-8--| x2
C# | -------------------------------------------|
PM ............................................


Rhythm:
D# | ----------------------------------|
A# | ----------------------------------|
F# | -11-----11-----9----11s12---------|
C# | -x-------x-----x-----xs-x---------| x2
G# | -9-------9-----7-----9s10---------|
C# | ----------------------------------|


Chorus
D# | ---------|
A# | ---------|
F# | -9-9-9---|
C# | -7-7-7-7-7-7-9-9-9-9-9---5-5-7-7-10-10-7-7--5-5-7-7-10-10-7-7---| 2x
G# | -7-7-7-7-7-7-9-9-9-9-9------------------------------------------|
C# | -------7-7-7-9-9-9-9-9------------------------------------------|


Post-Chorus Lead Guitar:
D# | ---------------------------------------------------|
A# | -9-4-5------9-4-5----------------------------------|
F# | ---------11-------11--4-8-9-6-4-2-4-6-8------------|
C# | ---------------------------------------------------|


Rhythm plays:
D# | -------------------------------------|
A# | -------------------------------------|
F# | -11-11----11-11-----9-9----11s-12----|
C# | -x---x----x---x-----x-x-----xs--x----|
G# | -9---9----9---9-----7-7-----9s-10----|
C# | -------------------------------------|


Verse 2: same as Post-Chorus 2x


Chorus


Bridge Rhythm Guitar:
D# | ---------------------------------------------------|
A# | ---------------------------------------------------|
F# | ---------------------------------------------------|
C# | -7-7-7-7-9-9-9-9-11-11-11-11-9-9-9-9-7-7-7-9-9-9---|
G# | -7-7-7-7-9-9-9-9-11-11-11-11-9-9-9-9-7-7-7-9-9-9---|
C# | -7-7-7-7-9-9-9-9-11-11-11-11-9-9-9-9-7-7-7-9-9-9---|


Lead:
D# | -----|
A# | -----|
F# | -9-9-9-9-11-11-11-11-13-13-13-13-11-11-11-11-9-9-9-11-11-11-|
C# | -x-x-x-x--x--x--x--x--x--x-x--x--x---x--x--x-x-x-x-x--x---x-|
G# | -7-7-7-7--9--9--9--9-11-11-11-11-9---9--9--9-7-7-7-9--9---9-|
C# | -----|



Then Lead:
D# | ------------------------------------|
A# | ------------------------------------|
F# | -9s11s9-------11-11-11s13-----------|
C# | -xsx-sx-------x--x---xs-x-----------|
G# | -7s9-s7-------9--9---9s11-----------|
C# | ------------------------------------|


Rhythm plays:
D# | -------------------------------|
A# | -------------------------------|
F# | -------------------------------|
C# | -7-7s9-9s7-----11-11s13--------|
G# | -7-7s9-9s7-----11-11s13--------|
C# | -7-7s9-9s7-----11-11s13--------|

Repeat Bridge


Then Lead Guitar:
D# | -------------------------------------------------|
A# | -9-4-5------9-4-5--------------------------------|
F# | -------11---------11--4-8-9-6-4-2-4-6-8----------| 2x
C# | -------------------------------------------------|


Then Piano


Chorus



Then Lead Plays:
D# | ---------------------------------|
A# | ---------9-5--4h5----------------| 3x
F# | -4h6-4h6-------------------------| 
C# | ---------------------------------|


D# | ------------------------------------------|
A# | -10h9-4h5--10h9-4h5-4h6-4h6-10-10-4h5-----|
F# | -------

Embers and Envelopes – Mae Chords

Mae
Embers and Envelopes

DROP D TUNING
Intro

E|10---7---7---7-----------10--7---7---7----------------
B|---8---8---8---8-8-7-7---------8---8---8-8-7/3--------
G|---------------0-0-0-0-----------------0-0-0-0--------
D|------------------------------------------------------
A|------------------------------------------------------
D|------------------------------------------------------

E|------------------------------------------------------
B|---7----------------------------3---------------------
G|---0----------------------------0---------------------
D|---x----------------------------x---------------------
A|---7-x16------------------------3-x16-----------------
D|------------------------------------------------------

VERSE x2
E|------------------------------------------------------
B|------------------------------------------------------
G|------------------------------------------------------
D|---5----------2----------10----------2----------------
A|---5----------2----------10----------2----------------
D|---5-x4-------2-x4-------10-x4-------2-x4-------------

on the second time, matt comes in with

E|------------------------------------------------------
B|---10--------7-----------3-----------7----------------
G|---0---------0-----------0-----------0----------------
D|---x---------x-----------x-----------x----------------
A|---10-x8-----7-x8--------3-x8--------7-x8-------------
D|------------------------------------------------------

CHORUS x2
E|------------------------------------------------------
B|------------------------------------------------------
G|------------------------------------------------------
D|---5---------9----------2----------10-----------------
A|---5---------9----------2----------10-----------------
D|---5-x4------9-x4-------2-x4-------10-x4--------------

matts chorus part(possibly... i have it as a second guitar part)

E|-----------------------------------------------------
B|---10--------3----------7----------3-----------------
G|---0---------0----------0----------0-----------------
D|---x---------x----------x----------x-----------------
A|---10-x4-----2-x4-------7-x4-------3-x4--------------
D|-----------------------------------------------------

BREAKDOWN
for the first 2 bars of the breakdown, just repeat the intro riff, then the
last 2 are:
E|----------------------------15-14--------------------
B|3----------3----------15-13-------15-----------------
G|0----------0-------------------------14--------------
D|x----------x-----------------------------------------
A|3-x12------3-x12-------------------------------------
D|-----------------------------------------------------

then... when dave sings embers and rob plays, these chords are just slid
back and forth, only pick the very first one of each time - x2(if you're
confused, just listen to the song, you can hear the chords slid back and
forth, but not picked)

E|-----------------------------------------------------
B|---10---\3----/7----\3-------------------------------
G|---0-----0-----0-----0-------------------------------
D|---x-----x-----x-----x-------------------------------
A|---10---\2----/7----\3-------------------------------
D|-----------------------------------------------------


Song order:
Intro
Verse x2
Chorus x2
Verse x2
Chorus x2
Breakdown
Chorus x4

Tisbury Lane – Mae Chords

Tisbury Lane
Mae

standard tuning

intro/verse: - rhythm not exact, but its not hard to get it down

e|--------------------
B|--------------------
G|---9---9---9---9------4---4---4---4------2---2---2---2-------4---4---------
D|---9---9---9---9------4---4---4---4------2---2---2---2-------4---4---------
A|----0h2---2---3-2-0-
E|-0h9---9---9---9----0h4---4---4---4----0h2---2---2---2---------------------

will you come back? part: pick through these chords(bridge)

e|---0-------0-------0-------0-------
B|---0-------0-------0-------0-------
G|---9-------9-------9-------4-------
D|---9-------9-------9-------4------- x2
A|---0-------------------------------
E|-----------7-------9-------4-------

after second time:
e|---------0------------0------
B|----------0-----------0------
G|-----------2----------2------
D|------------2---------2------
A|-------------x--------x------
E|---4-3-2------2--0h2--2------

chorus:

e|-----------------------------------------
B|-----------------------------------------
G|---9--8h9p8---4---2--1h2h1---------------
D|---9----------4---2----------4---5-------
A|---x----------x---x----------2---3-------
E|---9----------4---2----------------------

octave solo:

e|---------------
B|---------------
G|---13--8--13--9--6--4--5----------13--16--8--13--9--6--4--5--4--------
D|---x---x--x---x--x--x--x----------x---x---x--x---x--x--x--x--x--2-----
A|---11--6--11--7--4--2--3----------11--14--6--11--7--4--2--3--2--0-----
E|---------------

song order:
intro/verse riff x8
bridge riff
intro/verse riff x8
bridge riff
chorus riff x4
octave solo
intro/verse riff x2

Book of Life – Love Song Chords

Book of Life
Words and Music by Tom Coomes and Chuck Girard
on Final Touch
Copyright YEAR


Intro: G C G D 

(Chorus) 

G                                        C               G
I keep my thumb between the pages and my heart in the book
D                         G
Talking 'bout the book of life
G                                         C                     G
Why my heart gets too confusing well I'll stop and take another look
D                         G
Talking 'bout the book of life

E                                      A           E                               A
At times when my heart gets downright faithless and I sink into the quicksand of my sin
C                              F
That's when the Word of God can purge my sinner's heart
D                      G                   A            D
And free me from those old desires that pop up now and then

(Chorus)

E                               A          E                                A
The first time I read it I was floating, the second time I felt the change begin
C                                F
The third time the truth began to hit me
D                    G              A      D
The Word of God was washing out my brain, amen

(Chorus)

E                          A         E                       A
I used to worry about my waistline, I found it awful hard to grin
C                           F
But now my soul delights in feeding on the Word
D              G                 A             D
Can't stuff enough of those spiritual calories in

(Final Chorus)
G                                         C            G
I keep my thumb between the pages and my heart in the book
D                         G
Talking 'bout the book of life
G                                          C                     G
When my life gets so confusing, well, I'll stop and take another look
D                         G
Talking 'bout the book of life
         D                                    G
Why don't we take another look in the book of life
             D                        
Come on let's take another look in the book, in the book, in the book, in the book
               G     Gb7 G7
In the book of life

Transcribed by Joshua R. Martinez
	       guitarman4christ@netzero.net

Visit my CCM site at http://freeweb.pdq.net/pokes.66/ccm/ccm.htm

If there are any classic CCM that you wish to have chords to, e-mail
your request to me.

God bless you.

Let Us Be One – Love Song Chords

Let Us Be One
Lyrics and Music by Tom Coomes
on Love Song

Am7                 Em7
Lord, don't let me strive against my brother
Am7                               Bm7           Cmaj7
I'm so tired of it, don't want to do it no more
Am7                 Em7
Lord, don't let us fight against each other
C          D      C  Am7  C D F
Let us be one in you
Am7              Em7
Lord, give us love for one another
Am7                      Bm7       Cmaj7
In what we say, yes, in what we do
Am7                    Em7
Lord, teach us to build up one another
C          D      Am7 C D F
Let us be one in you
F                     Em7         Am7                  Em7
For your sake let us learn to wait on the Spirit's move
F                 Em7           Am7                    E7
We know that the hour is so late and you'll be coming soon
      Am7
La da da

(chorus)
                     Em7
Pa pa pa pa pa ra pa pa da da
Am7                     Bm7                      C6 
Pa pa pa pa pa ra pa pa da da da da da da da da pow
Am7                  Em7
Pa pa pa pa pa ra pa pa da da
C          D      Am
Let us be one in you (go to ending on second time through)
C          D  F 
Let us be one

(guitar solo)C D Am C D F Am7

Am7           Em7
Lord, let us rest up in your Spirit
Am7                          Bm7           Cmaj7
Knowing full well that we're in your hands
Am7                       Em7
Oh, God, open up our hearts so we can hear it
C          D      Am
Let us be one in you
C          D
Let us be one

(chorus)

C          D      Am
Let us be one in you
C          D      Am
Let us be one in you
C          D      Am C D Am
Let us be one in you

Transcribed by Joshua R. Martinez
		guitarman4christ@netzero.net

If there are any classic CCM that you wish to have chords to, e-mail
your request to me.

God bless you.

Scars That Save – Kids In The Way Chords

scars that save (track #7)
band: kids in the way
album: safe from the losing fight
copyright 2003 flicker records

verse 1 
guitar 1
|-----------------|
|-----------------|
|-1111111111111111111111111111111111111111111111111111111111111111111111-|
|-1111111111111111111111111111111111111111111111111111111111111111111111-|
|-9-9-9-9-9-9-9-9-9-9-9-9-9-9-9-9-9-9-9-9-9-9-9-9-9-9-9-9-9-9-9-9-9-9-9--|
|-----------------|
p.m......................................................................
guitar 2
|------|
|------|
|------|
|-4434-|
|-4434-|x4
|-2212-|

 chorus 
both guitars
|----------------------------------------|
|----------------------------------------|
|-6656------6656------6656------6656-----|
|-6656-8886-6656-8886-6656-8886-6656-8-6-|
|-4434-8886-4434-8886-4434-8886-4434-8-6-|
|------6664------6664------6664------6-4-|
verse 2
guitar 2
verse 2 is the same exept guitar 2 starts out w/ this
|----------------------|
|----------------------|
|-11-1111-----11111011-|
|-11-1111-----11111011-|
|-9--9-9------9-9-8-9--|
|----------------------|

bridge
all guitars
|----------
|----------
|---------------------------------8-8-8-8-8-8-8-8-6-6-6-6-6-6-6-6-
|-3-3-3-3-3-3-3-3-4-4-4-4-4-4-4-4-8-8-8-8-8-8-8-8-6-6-6-6-6-6-6-6-
|-3-3-3-3-3-3-3-3-4-4-4-4-4-4-4-4-6-6-6-6-6-6-6-6-4-4-4-4-4-4-4-4-
|-1-1-1-1-1-1-1-1-2-2-2-2-2-2-2-2---------------------------------
p.m...............................................................

bridge cont.
|----------
|----------
|---------------------------------8-8-8-8-8-8-8-8-----------------
|-3-3-3-3-3-3-3-3-4-4-4-4-4-4-4-4-8-8-8-8-8-8-8-8-8-8-8-8-6-6-6-6-
|-3-3-3-3-3-3-3-3-4-4-4-4-4-4-4-4-6-6-6-6-6-6-6-6-8-8-8-8-6-6-6-6-
|-1-1-1-1-1-1-1-1-2-2-2-2-2-2-2-2-----------------6-6-6-6-4-4-4-4-
p.m..............................
play this twice only on second time dont p.m.

outro
guitar 1
|---------------|
|---------------|
|-11111111111111111111111111111111111111111111111111111111111111111111-|
|-11111111111111111111111111111111111111111111111111111111111111111111-|
|-9-9-9-9-9-9-9-9-9-9-9-9-9-9-9-9-9-9-9-9-9-9-9-9-9-9-9-9-9-9-9-9-9-9--|
|---------------|
p.m....................................................................

outro
guitar 2
play this as it fades out. listen for exact timing.
|------------------------------------------------------|
|------------------------------------------------------|
|-11-1111-------11-1111-------11111011------11----1111-|
|-11-1111-------11-1111-------11111011------11----1111-|
|-9--9-9--------9--9-9--------9-9-8-9-------9-----9-9--|
|------------------------------------------------------|

well, i think thats it! enjoy!

Little Bit of Soul – Kings X Chords

Title: Little Bit of Soul
Author/King's X
Tapehead
Transcribed by: Grant Coleman
Email: gcole10591@worldnet.att.net

I got a few requests (and saw some) for this song so I
decided to do it. Nothing much to say about this one.
Tapehead is a real good album, but one problem I have
with it is its lack of variety. Great songs but some of them
tend to sound the same or have the same elements. This
song has some of the same elements as the other song
I transcribed off Tapehead (Ocean). But the album still rules!

Be sure when sliding to pick the notes when you get to them.

Email comments/corrections to me.

-Grant

dropped d, down half a step.

verse      (first time) (second time)    (third time . . .

----------------------|-----------------|-----------------------------------
-8-8-7-8-7------------|-----------------|-----------------------------------
-7-7-7-7-7----4-4-4-2-|-9-9-9--4-4-4-6/-|-7-2-------------------------------
-7-7-7-7-7----2-2-2-0-|-7-7-7--2-2-2-4/-|-5-0-------------------------------
-5-5-5-5-5------------|-----------------|-----------------------------------
----------------------|-----------------|-----------------------------------
                                                                           
  
. . . . . . . . . . .)

---------------------
---------------------
-4-4-4-4-6-7---------
-2-2-2-2-4-5---------
-2-2-2-2-4-5-0-2-3v--
---------------------
                                                                           
  
chorus
                (notes in parenthesis sometimes played)
------------------(3)-3-----------------------------------------------------
------------------(3)-3-----------------------------------------------------
---------------------
-0--------3--------5-
-0--0-2-3-3--3-5-7-5-
-0--0-2-3-3--3-5-7-5-
                                                                           
  
(1st ending of chorus [all times])

---------------------
---------------------
---------------------
-0-------------------
-0-------------------
-0-------------------
                                                                           
  
(2nd ending of chorus [all times, not sure if that last chord is correct])

---5-----------------
---5-----------------
-------7-7-7-7-------
-7---7-5-5-5-5-------
-7---7-5-5-5-5-------
-7---7-7-7-7-7-------
                                                                           
  
bridge (you can figure out the timing :-P)

-----------------------|---2----------|-------------------------------------
---------------------7-|--------------|-------------------------------------
-7-7-7-7/9/11/12\--5---|-4----5-7-7h9-|-7-----------------------------------
-0-0-0-0-0--0--0-----

Jesus Loves Me – Jennifer Knapp Chords

Jennifer Knapp
Jesus Loves Me

D2 x00230 
C2 x30030 
G6/B x20030 
C2/Bb x10030 

D2 C2 G6/b 
e ------0-------------0------------0--------| 
B --3--------3----3-------3----3-------3----| 
G ----2-------2-----0------0-----0------0---| 
D -0-----------0------------0------------0--| 
A --------------3------------2--------------| 
E ------------------------------------------| 

C2/Bb C2 
e ----------------------| 
B -----3---------3------| 
G -------0---------0----| 
D ---------0---------0--| 
A -0h1-------1h3--------| 
E ----------------------| 


Verse 1. 

Jesus Loves me this I know, 
For the BIble tells me so 
Little ones to Him belong 
They are weak but he is strong 

Chorus: 

Alleluia, allelu. Alleluia, alleluia 
Alleluia, allelu. Alleluia, allelu, alleluia 

Verse 2. 

Jesus Loves me He who died 
Heaven's gates are open wide 
He will take away my sin, 
And let this little child come in. 

Repeat Chorus 

Verse 3. 

Do you love Him does He know, 
Have you ever told Him so, 
Jesus loves to hear us say, 
That we love Him everyday. 
So help me run the race before me, 
Strong and brave to face me foe, 
Looking only unto Jesus, 
As each day onward I go. 

Repeat Chorus 

Verse 4. 

Amazing Grace how sweet the sound 
I once was lost but no I'm found 
Once was blind but now I see 
Amazing Grace saved a wretch like Me. 

Repeat Chorus 2x 
(Fade the guitar the second time.)

Be In Time – Phil Keaggy Chords

BE IN TIME
Phil Keaggy

                Tune guitar down one
                whole step (DGCFAD)

E-----3----------------------
B-----3----/12---10---8---7---
G-----0------------------7---
D--5-------/12---10---9-------
A----------------------------
E------------------------7---

E--/7---5---3----3-----------
B----------------3----------
G--/7---5---4----0----------
D----------------2----------
A----------------3----------
E---------------------------

E--/7---5---3---3-----------
B--------------3------------
G--/7---5---4---0-----------
D---------------0-----------
A---------------------------
E---------------------------

E-----------0----------
B---------3---3----3---
G------5-----------0---
D--0h2-------------0---
A------------------2---
E------------------3----

THIS IS THE WHERE THE REAL INTRO STARTS:

E-----------------------
B---/12---10---8----7----
G------------------7----
D---/12---10---9---------
A-----------------------
E------------------7----

E--/7---5---3-------0--------
B----------------3----------
G--/7---5---4----0----------
D----------------2----------
A----------------3----------
E---------------------------

E--/7---5---3---3-----------
B--------------3------------
G--/7---5---4---0-----------
D---------------0-----------
A---------------------------
E---------------------------
                        last X hold G chord
E-------------0-------------------3--
B--3h5p3p0-----1-------------------3--
G----------2--2----2h4p2p0----0----0--
D-------------0------------2-------0--
A----------------------------------2--
E----------------------------------3--

        
        Em     Em/C#   C     G
       
        D/F#    Dm/F   Esus  E
        
        Am7     G/B    C     Em/C#
        
       (see arpeggio tab at end)
        
        C        Cm    G     Esus   
        
        C        Cm    G     Esus    E
        
        Am7      G/B   C     Em/C#
        
       (arp.)    C   Cm6     G
        

        (intro)
        
        Em     Em/C# C     G
        
        D/F#   Dm/F  Esus  E
        
        Am7    G/B   C    Em/C#
        
       (arp.)
        

        C     Cm     G    Esus
        
        C     Cm     G    Esus    E
        
        Am7   G/B    C    Em/C#
        
             (arp.)
        
        C     Cm6    G
        

        C     Cm6    G
        
        (intro twice)

       Em    Em/C#  C        G 
        
       D/F#  Dm/F   Esus     E
        
       Am7   G/B    C        Em/C#
        
       (arp.)
        
        C    Cm     G        Esus    
        
        C    Cm     G        Esus     E
        
        Am7  G/B    C        Em/C#
        
       (arp.)
        
        C    Cm6         G
        

        (intro twice, second time slower)

          THAT ARPEGGIO (ARP.) YOU'VE BEEN HEARING ABOUT:


E--------0-------------0----
B------0---0---------0---0--
G-----0------------0--------
D---2------------2----------
A--5-----------5------------
E----------------------------

E---------0------------0----
B-------0---0--------0---0--
G-----0------------0--------
D---2------------2----------
A--4-----------4------------
E---------------------------

        THE CHORDS.....

                EADGBE
        Em      022000
        Em/C#   x4x000
        D/F#    2x023x  (use I, M, and R)
        Dm/F    1x023x  (same)
        Esus    022200
        Am7     x02010
        G/B     x20033
        Cm6     x3x24x  (M, I, P)

        PERFORMANCE NOTES:

        In that fourth bar before the
Real Intro (the one with the hammer-
on's), anchor your pinky on the G-string
and your middle finger on the B string
before you start the series of notes...use
the index finger to hammer on.

        At each phrase, Be in Time, let
those arpeggio notes really ring (I use
my pinky and index fingers to hold the
notes)...

Moors of Bellevue – The – Phil Keaggy Chords

Artitst: Phil Keaggy
The Moors of Bellevue
Keaggy/King/Dente`- Invention
Submitted by: Travis

Notes: This song is played in the key of C, and the riffs come out of the
A natural minor scale, if this is any help to you. I could only figure out
one guitar part, but if you find an improvement or mistake let me know at
tocdbc. () = note played in background by bass or other guitar. If
u want to solo, just improv in some modes in the key of C.

Verse:
F. . . . G7
F. . . . G7 . . .(drums, bass, and other guitars come in)
(repeat twice)

Main riff (1st time)
e----------------------------
B----------------------------
G--7--7--7-5-7-9-7-5---------
D---------------------7---(5)
A----------------------------
E----------------------------
repeat twice, then play the modified riff once:

e-------------------------
B-------------------------
G--7--7--7-5-7-9-7-5-9~~~~
D-------------------------
A-------------------------
E-------------------------

Now play chorus riff:
e-------------------------
B-------------------------
G--12----9--7------5------
D----------------7----7-5-
A-------------------------
E-------------------------

Then play verse, then play the main riff the second time:
(2nd time)
e----------------------------
B----------------------------
G--7--7--7-5-7-9-7-5---------
D---------------------7---(5)
A----------------------------
E----------------------------

then:

e----------------------------------
B----------------------------------
G--7--7--7-5-7-9-7-5---------------
D---------------------7---7-7-9-7-5
A----------------------------------
E----------------------------------

then:

e------------------------------------
B------------------------------------
G--7--7--7-5-7-9-7-5-----------------
D---------------------7---7-5--------
A-----------------------------7-5----
E---------------------------------7-5

then play the modified riff that is above.

Again, if you have a comment or note or fixation or, you know, whatever,
e-mail me. 

Cool beans.

Peace – Grammatrain Chords

PEACE by grammatrain off their 2nd awesome album flying
tabbed by insignifigant john (john.pj)

intro is a G with some variations
vs.1
G
peace with me now
G/Bb                         G
i never thought i could know how
G
sleep in your love
G/Bb                          G
i feel your arms that keep me now
 
chorus:
C
could never be without you
Am                          G
could never be without your love
                  E
i feel you from above
C                     G
don't ever want to be alone

repeat vs.1
2nd time go to bridge
 
bridge:
Am
you'll never leave me drifting
D                          Em
you'd never take away your peace
                 C
or run away from me
          G
need your love - love

tabbed by Bryan (baxe@misi.net)

D|--------------------------------|--------------------------------|
A|--2-2-2--3/5--5-5-5-5--7-7--5-5-|-2-2-2--3/5--5-5-5-5--7-7--5-5--|
E|--------------------------------|--------------------------------|

D|------------------|-------------------------------|--------------|
A|--5-5-5--1-1-1--3-|-2-2-2--3/5--5-5-5-5--7-7--5-5-|-2-2-2--3/5---|
E|------------------|-------------------------------|--------------|

D|--------------------|--------------------------------------------|
A|--5-5-5-5--7-7--5-5-|-2-2-2--3/5--5-5--5/12--12-12--10-10--13-13-|
E|--------------------|--------------------------------------------|

D|-----------------------------------|
A|--13-13-13--14-14-14-14-14--14/10--|
E|-----------------------------------|
 
 
then play the first three lines of the bridge, and go to the chorus.
i think they use different chords in the bridge the second time
(like the last C is a G).  anyway, the Am's and D's i'm not too sure
on, but it works for me.  there are bound to be errors, because i made
the tab.

chords:
C    x-3-2-0-1-0
G    3-2-0-0-3-3
G/Bb x-1-x-0-3-3
E    0-2-2-1-0-0
Em   0-2-2-0-0-0
D    x-x-0-2-3-2
Am   x-0-2-2-1-0

e-mail comments complaints quotes: john.pj

All the Earth – Charlie Hall Chords

Charlie Hall - All the Earth
Name: Tom Danner
E-mail: flyguy@rose.net

-Intro:   

D  Dm  F  G  (x4)

-Verse:

D 

-Chorus:

Bm7 F#7 Em D

Bm7 F#7 Em A# 

-Verse

-Chorus

-Bridge: 

D Bm7 A#  G

D Bm7 A#  G

-Repeat intro chords:

D  Dm  F G  (x2) 

-Chorus:

Bm7  F#7  Em  D 

Bm7  F#7  Em  A# 

(x2)

Repeat Intro Chords:

D  Dminor  F  G  (4x)

D  Bm7  A  G  (x4)

D 

Notes

-Verse: Basically just D, but you can throw in a Dsus4, and / or D2, mostly 
downstrokes with some palm-muting thrown in
-Chorus: He switches back and forth, the first time he plays
the chorus he plays it with just a Bm7 F#7 and Em, the second time
he plays it, he adds a A# at the end, and this repeats throughout the song.
-Repeat Intro Chords: This is mostly guitar effects, but the chords sound fine )

Also, in case you are wondering, here are the way I play the chords:

D (xx0232)
Bm7 (x24232)
F#7 (242322)
Eminor (022000)
A# (688766)(barre, 6th fret)
A (577600)
G (355400)(barre, 3rd fret) 
F (barre, 2nd fret)

Listen to the CD to get the timing right, as well as the strumming,
sometimes (like in the end) he hits some strings more than others, just
listen and play along with the CD and you'll get it. Any questions /
comments / suggestions, please e-mail me.

Don’t Let the Sun Go Down on Your Anger – Hangnail Chords

Title: Don't Let the Sun Go Down on Your Anger
Hangnail



They add another guitar after the first time through this, but without
 a band just add the bottom string the second time thru.

E---------------------------------------------------
B---------------------------------------------------
G---------------------------------------------------
D-7-7-7--11-11--4-4-4--7-7-7--11-11-4-4-4-----------
A-7-7-7--11-11--4-4-4--7-7-7--11-11-4-4-4-----------
D----------------------7-7-7--11-11-4-4-4-----------

E---------------------------------------------------
B---------------------------------------------------
G---------------------------------------------------
D-7-7-7--11-11-4-4-4---7-7-7--11-11-4-4-4-----------
A-7-7-7--11-11-4-4-4---7-7-7--11-11-4-4-4-----------
D-7-7-7--11-11-4-4-4---7-7-7--11-11-4-4-4-----------

 palm muted
E---------------------------------------------------
B---------------------------------------------------
G---------------------------------------------------
D-7-7-7--11-11--4-4-4---7-7-7--11-11--4-4-4---------
A-7-7-7--11-11--4-4-4---7-7-7--11-11--4-4-4---------
D-7-7-7--11-11--4-4-4---7-7-7--11-11--4-4-4---------

                       (these E(2) chords are not palm muted)
E---------------------------------------------------
B---------------------------------------------------
G---------------------------------------------------
D-7-7-7--11-11--4-4-4---7-7-7--2-2-2-2-2-2-2-2------
A-7-7-7--11-11--4-4-4---7-7-7--2-2-2-2-2-2-2-2------
D-7-7-7--11-11--4-4-4---7-7-7--2-2-2-2-2-2-2-2------

E---------------------------------------------------
B---------------------------------------------------
G---------------------------------------------------
D-9-9-9-9-9-9-9h11-12-12-12-12-12-12-12-12----------
A-9-9-9-9-9-9-9h11-12-12-12-12-12-12-12-12----------
D-9-9-9-9-9-9-9h11-12-12-12-12-12-12-12-12----------

 (7's are palm muted)
E---------------------------------------------------
B---------------------------------------------------
G---------------------------------------------------
D-7-7-7-7-7-7-7-7-7-7-7-2-2-4-4-4-4-4-4-4-4---------
A-7-7-7-7-7-7-7-7-7-7-7-2-2-4-4-4-4-4-4-4-4---------
D-7-7-7-7-7-7-7-7-7-7-7-2-2-4-4-4-4-4-4-4-4---------

E--------------------------------------------
B--------------------------------------------
G--------------------------------------------
D-9-9-9-9-9-9-9h11-12-12-12-12-12-12-12-12---
A-9-9-9-9-9-9-9h11-12-12-12-12-12-12-12-12---
D-9-9-9-9-9-9-9h11-12-12-12-12-12-12-12-12---

 (7's are palm muted)
E---------------------------------------------------
B---------------------------------------------------
G---------------------------------------------------
D-7-7-7-7-7-7-7-7-7-7-7-2-2-4-4-4-4-4-4-4-4---------
A-7-7-7-7-7-7-7-7-7-7-7-2-2-4-4-4-4-4-4-4-4---------
D-7-7-7-7-7-7-7-7-7-7-7-2-2-4-4-4-4-4-4-4-4---------
(7's are palm muted)
E---------------------------------------------------
B---------------------------------------------------
G---------9-9-9-9-6-6-6-6-7-7-7-7-------------------
D-7-7-7-7-9-9-9-9-6-6-6-6-7-7-7-7-------------------
A-7-7-7-7-7-7-7-7-4-4-4-4-5-5-5-5-------------------
D-7-7-7-7-------------------------------------------(X4)

E---------------------------------------------------
B---------------------------------------------------
G---------------------------------------------------
D-7-7-7-11-11-4-4-4------7-7-7-11-11----------------
A-7-7-7-11-11-4-4-4------7-7-7-11-11----------------
D-7-7-7-11-11-4-4-4-(X3)-7-7-7-11-11----------------

Then they go a capella (no instruments) only drums that leads into:

Chorus again, only playin each chord twice (X2)
During that the second (lead) guitar takes this easy solo.

E-9-7-9-10-12-10-9-7-9-4-5-7--(Repeat)
B-----------------------------
G-----------------------------
D-----------------------------
A-----------------------------
D-----------------------------

Then again, but the last chord is only struck on