Tag: Second Time

Is Forevor Enough – Hawk Nelson Chords

Song- Is Forevor Enough
Artist- Hawk Nelson
CD- Smile It's the End of the World
copyright 2006 Tooth and Nail Records

tabbed by, Relient Nelson


Hey guys, this song is in an even lower tuning than drop drop c# tuning. 
It is in drop c.
 This is one of Hawk's best songs of
all time.  Please rate it, correct it, and enjoy it!  And check out my other
tab of another awesome Hawk song The One Thing I Have Left.

*= palm muffle
b= bend
x with an h and a number under it =harmonic on whatever fret the number says

Intro:

Guitar 1

D------
A------
F------     2x
C--0-0000-8-8888-7-7777-5-3-2-3-0-0000-7-7777-3-3333-5-3-2-3-0
G--0-0000-8-8888-8-8888-5-3-2-3-0-0000-7-7777-3-3333-5-3-2-3-0
C--0-0000-8-8888-7-7777-5-3-2-3-0-0000-7-7777-3-3333-5-3-2-3-0

Guitar 2

D------1-0-1----1-0-1-----1-0-1-3-1-0-1-0-----1-0-1-----1-0-1-----1-0-1-3-1-0-1
A--3-3------------------------------------3-3----------------------------------
F------------3-3----------------0-------------------2-2-----------------0------
C---------------------3-3-------------------------------------3-3--------------
G------------------------------play above two times------------------------    
C-----------------------------------------------------   

Verse 1:

Guitar 1

D---------------------
A---------------------
F---------------------
C--0--x-x-x--0--x-x-x-0--x-x-x-8-8-8-10-10-10-0-0-x-x-x--0-0-x-x-x--0-0-x-x-x
G--0--x-x-x--0--x-x-x-0--x-x-x-8-8-8-10-10-10-0-0-x-x-x--0-0-x-x-x--0-0-x-x-x
C--0--x-x-x--0--x-x-x-0--x-x-x-8-8-8-10-10-10-0-0-x-x-x--0-0-x-x-x--0-0-x-x-x
      h5h5h5    h5h5h5   h5h5h5                   h8h8h8     h8h8h8     h8h8h8

D----------------
A----------------
F----------------
C--3-3-3-10-10-10   play this 2x
G--3-3-3-10-10-10
C--3-3-3-10-10-10

Guitar 2 comes in the second time with this

D--5-5-5-5-3-3-3-3-1-1-1-1-0-0-0-0---------0-0-0-0-1-1-1-1-3-3-3-3
A----------------------------------3-3-3-3------------------------
F----------  2x
C----------
G----------
C----------

Pre-chorus

Guitar 1 

D------------------------------------------
A------------------------------------------
F------------------------------------------   play 2x
C--12-12-12-12-8-8-8-8-10-10-10-10-5-5-5-5-
G--12-12-12-12-8-8-8-8-10-10-10-10-5-5-5-5-
C--12-12-12-12-8-8-8-8-10-10-10-10-5-5-5-5-

His breath is taken away,

Chorus

Guitar 1 

D-----------------------------------
A-----------------------------------
F-----------------------------------
C--3----8----0-0-0-0-0-0-10----8----  play 2x
G--3 8x-8 8x-0-0---0-0---10 4x-8 4x-
C--3----8----0-0---0-0---10----8----

play intro once

play verse once

play prechorus twice.  The second time guitar two comes in with this riff.


D---------
A--5-5-3-3  play 7x
F---------      
C---------     we'll call this riff 1
G---------
C---------

play chorus

Bridge:

Guitar 1

D-------------------------------------
A-------------------------------------
F-------------------------------------   2x
C-------------------------------------
G-------------------------------------
C--0-0-0-0-8-8-8-8-10-10-10-10-5-5-5-5

the second time guitar 2 plays riff 1

play the chorus with each power chord being played three times instead of
the usuall number

then play:

D--
A--
F--
C--3----10----0----8----
G--3 8x-10 8x-0 8x-8 8x- play 2x the second time play it with this rhymexx xxx
C--3----10

My Covering – Watermark Chords

MY COVERING
Written by Nathan and Christy Nockles

Intro
Asus             A		Asus		A

VERSE
A		F#m7
Bsus 		D2
A		F#m7
Bsus 		D2
A		F#m7	
Dm2/F		G

CHORUS
A	A2sus 		A	E
D2/F#		E7sus/B	
A 	A2sus		A	E
D2/F#		E7sus/B

After Chorus second time

Asus		A	(repeat progression)
Am7		A2sus
A2		F#m7		Dm/F
A	F#m7		
Dm7/F	  G2	Dm7/F	  G2

CHORUS

Any questions, please feel free to ask.

Last Christmas – Hawk Nelson Chords

Last Christmas
Hawk Nelson
Happy Christmas (volume 4)

I first heard this song in the radio, and it is pretty cool, so i decide to
tab it out. I think the Album where it came from is put together by Tooth and Nail.

The Whole if I am not mistaken it is all
C Am Dm G this is for people who cannot read tabs :D

Intro:
Rythm Guitar-Palm mute 
     C (C5)      Am (A5)       Dm (D5)      G (G5)
e-----------------------------------------------------
B-----------------------------------------------------
G-555555555555--------------777777777777--------------
D-555555555555-777777777777-777777777777-555555555555-
A-333333333333-777777777777-555555555555-555555555555-
E--------------555555555555--------------333333333333-

Lead Guitar
e---
B---8---------------------8-5---------8-5------------------
G-------------4-5-7-5---------5-----------5----------------
D-5~--5~--5-7---------7~--------7-----------7-5~-----------
A---------------------------------8~--------------8-7-5----
E8~-


Verses: I dunno maybe it is choruses, but so u know its the part
        after the intro.

e-----------------------------------------------------
B-----------------------------------------------------
G-555555555555--------------777777777777--------------
D-555555555555-777777777777-777777777777-555555555555-
A-333333333333-777777777777-555555555555-555555555555-
E--------------555555555555--------------333333333333-


Break: or chorus- the part after the verse
with delay... 
e---------------------------------------------
B-------3-----------1-----------3-----------0-
G---5---------4---4-------5---5-------5---5---
D---------------------------------------------
A-3---3-----0---0-------5---5-----------------
E-----------------------------------3---3-----

there is a piano/synth sounding thing the second time around on the first 
break.

note: this is one octave lower than what it is cuz my guitar cant 
      hit some of the notes being played

e--------------------------8--10------8~--10-------8--10-------13~-15~--
B-8--10-----8~--10-----(2x)------8-10--------8-10--------8-10-----------
G-------7-9-------7-9---------------------------------------------------

Then Verses... 
Then Break again but only once... 
then the piano sounding thing again by itself
one octave lower with a slight variation like this

e--------------------------8--10------8~--10-------------13-12~-
B-8--10-----8~--10-----(2x)------8-10--------8-10---(2x)---------
G-------7-9-------7-9--------------------------------------------

After that the intro...
then everything drops of for like about 24 counts then the play Dm G
then Intro, but with singing

that is pretty much it, I hope i communicated the song well, because if
I am pretty sure all the parts of the song is in this tab. I hope You like
it and u understood me.

For Questions and Comments- michael_97124

God BLess.

Happy Day (Intro) – Tim Hughes Chords

Hi this is my first tab so i hope its ok.

Tuning: Standard

Intro: (add an analog delay and some reverb)

   x8   x8   x8   x8
e---------------------
b---------------------
g--12---10---9----10---  x2
d--x----x----x----x----
a--10---8----7----8----
E---------------------

Guitar riffed after chours

   x8   x8   x8   x4   x4
e-------------------------
b-------------------------
g--12---10---9----7----5--  x2
d--x----x----x----x----x--
a--10---8----7----5----3--
E-------------------------

At end of song do the guitar riffed the same as after the final chours,
but when you come to the power chord of D the second time round strum for x16
then end on the power chord G (begining of the riffed)

If you have any guesions email me at guitardude06@btinternet.com

Nothing Left to Show – Hawk Nelson Chords

Hawk Nelson
Nothing Left to Show
cd: Smile, Its the end of the world
tuning: Standard
~=bend
h=hammer on


This is a fun song and fairly easy to play.

Intro

e | --------------------| 
B | --------------------| 
G | -------6------------| 
D | -6-----6------------| 
A | -6-----4------------| 2x 
E | -4------------------| 


Verse

e | ----------------------------------------------------|  
B | ----------------------------------------------------| 
G | -------6-----------6-----------6--------------------| 
D | -6-----6-----6-----6-----4-----6-----6-----4-----5--| 
A | -6-----4-----6-----4-----4-----4-----6-----4-----5--| 2x 
E | -4-----------4-----------2-----------4-----2-----3--| 


Pre-chorus

e | -------------------------|  
B | -------------------------| 
G | -------6-----------------| 
D | -4-----6-----------------| 
A | -4-----4-----------------| 
E | -2-----------------------| 


Chorus

e | ------------------------------------------| 
B | ------------------------5-4-2-1-----------| 
G | -------6-----------6----------------------| 
D | -6-----6-----8-----6----------------------| 
A | -6-----4-----8-----4----------------------| 
E | -4-----------6----------------------------| 

Play chorus twice but on the second time dont play the end riff 
but play this at the end

e | --------------------| 
B | --------------------| 
G | -------6------------| 
D | -4-----6------------| 
A | -4-----4------------| 
E | -2------------------| 


verse 2x

Pre-chorus

chorus 2x 

Bridge 1: Starts out with bass, then on the second time it goes into this

e | -2h4-----4h7-----7h9------------------|play the 4, 7, and 9 a lot 
B | --------------------------------------| 
G | --------------------------------------| 
D | --------------------------------------| 
A | --------------------------------------| 
E | --------------------------------------|


Bridge 2: part where screaming comes in

e | ----------------------------------------|  
B | --------------15~~~~--------------------| 
G | --------------13~~~~--------------------| 
D | -6-----4--------------------------------| 
A | -6-----4--------------------------------| 
E | -4-----2--------------------------------|


chorus 3x



 Im not sure about that last cool thing they do at the end of bridge 2 
and I didnt do the riffs on the last chorus, 
but I think the rest is pretty close. 
Hope you enjoy, please post ratings soon so I know what to correct.

God Bless,
tl_guitarnut





Four Seven – Jars of Clay Chords

Title: Four Seven
Jars of Clay
Jars of Clay
Copyright 1995 Bridgebuilding Music
All rights Reserved Yada Yada.
Andy Fischer a/k/a plaid_child 
Questions? Problems? Email me: child57@email.com 
This song has three guitars, and I’ll add the third guitar later. Right
now I’m just doing guitars one and two. Guitar One is a standard-tuned
electric. Gutar Two is an acoustic in EABEBe tuning. (please tune down
for that..) 

Ok. First, Guitar One goes through its riff once. On the second time,
Guitar two comes in strumming each chord once. On the third time, Dan
starts singing, and Guitar two does a more rhythm-guitarish thing. Then,
they pretty much do that through the whole song. Have fun.

Guitar One riff:

e------+
B------|
G------|
D------|
A-11-11-9-9-9-11-9-11-9-11-9-----11-11-9-9-9-11-9-11-9-11-9---|
E-9--9--9-9-9-9--9-9--9-9--9-----0--0--0-0-0-0--0-0--0-0--0---+

  C#m                            E5                   

Let It Rise – Holland Chords

There was only one ver: of this song this way is easy!
Wow i wish i could post the lyrics
(Verse1)
E2, A2, E2 E2 A2, E2
(Chorus)
B, A, E (times two
Okay the second time you play through this it is a litle diferent
(Verse)
D, G, D, D, G, D
(Chorus)
A, G, D (times2)
Just to let you know play the E2 through the fist 2 let the glory of
The Lord. Then once you get to the let the praises switch to A2
the same thing goes for D  and G

Enchantment Under The Sea – The Huntingtons Chords

huntingtons
songs in the key of you
copyright 2001 tooth and nail records
enchantment under the sea


easy song!


Intro: 

G  D  C  D   4X


Verse: G  C  E(LOW)  D  2X


NEXT PART: G  D  E(HIGH) C g  d  e(high) note: when you play the first
high e, keep the low e string open while playing the high power chord.

PALM MUTE PRE-CHORUS THING:  C  D E  D  C  DDD

CHORUS: G  E(LOW)  D  C

INTRO 2X

VERSE 2X

NEXT PART

PRECHORUS

CHORUS: AT THE END, INSTEAD OF GOING TO C, GO TO LOW E THEN HIGH E 


bridge  c  g 2x


other thing:  e(low) c  g  d  e(low)  c  d  2x second time, make g and d stac.

chorus: second time, go to low e  then c  d  


intro/outro fade out


thas all folks. if you have any huntington or dingee tab requests, email me
at onlyontuesday@truepunk.com.  and go to the cool onlyontuesdays website
at
http://oot.8k.com

                                         -sean

All Comes Down – Ben Glover Chords

All Comes Down
Ben Glover

Tuning: DGDFAD (all down 1 step except D string)

[Fig. 1]
----------
---------------0-------------------------------0-----------------
-------1-----------1-------1-----------1-----------1-------1-----
-----2-----2-----------2-------------2-----2-----------2-------0-
---2---------2-------2-------------2---------2-------2------(x)--
-0-------------------------------0-------------------------------


----------------p-------------------------------p------------------||
-------0-------2-0---------------------0-------2-0----------------o||
-----1-----1-------1-------1---------1-----1-------1-------1-------||
---2---------2---------2-----------2---------2---------2----(2-0)*-||
-0-------------------0-----------0-------------------0------------o||
------------||

                                                         *in parentheses,
                                                          not last time
                                                          leading into fig 2


[Fig. 2]
-------0-------------------0-----------0-------0-------0----------
-----0-----0---0-------0-------------0-----0-------0-------0--(0)-
---------------------------------------------2-------2-------2----
---4---------4-------2-------------0------------------------------
-4-----------------2-------------0--------------------------------
-----------------4------------------------------------------------


-------0-------------------0-----------0-------0-------0----------
-----0-----0---0-------0-------------0-----0-------0-------0------
---------------------------------------------2-------2-------2-/--
---4---------4-------2-------------0------------------------------
-4-----------------2-------------0--------------------------------
-----------------4------------------------------------------------

*                                  *[second time]
-----0-----0-----0-------          |-----0-----0-----0-----0--------
---0-----0-----0---------          |---0-----0-----0-----0----------
-9-----8-----6-----4-----          |-9-----8-----6-----4-----2---1--
-------------------------          |--------------------------------
-------------------------          |--------------------------------
-------------------------          |--------------------------------


[Chorus]                         *1st chorus     *3rd chorus
-0---0---0---0---0---0---0---0--[(0)]-----------[0]--
-0---0---0---0---0---2---0---0--[-2-]-----------[1]--
-1---1---1---1---1---1---1---1--[-1-]-----------[2]--
-2---2---2---2---2---2---2---2--[-2-]-----------[2]--
-2---0---2---0---2---1---0---0--[-0-]-----------[0]--
-0-------0-------0-----------------------------------


[Fig. 3]
-------0---------------0--------------------0---------------0-----
-----0-----0---0------------------------0---------------2---------
---------------------5----------------1---------------1-----------
---4---------4-----4----------------0---------------2-------------
-4---------------3----------------2---------------1---------------
-----------


---------------0-------------------------------0-------0--------
-------2-----------2-------2-----------2---------------1--------
-----1-----1-----------1-------------1-----1-----------2--------
---2---------2-------2-------------2---------2---------2--------
-0-------------------------------0---------------------0--------
---------

[Intro]
  Fig 1 x2

[Verse 1]
  Fig 1 x2
  Fig 2

[Chorus] + 1/2 Fig 1

[Verse 2]
  Fig 1 chords, x2
  Fig 2 (second ending)

[Chorus] + 1/2 Chorus

[Bridge]
  Fig 3 + 1/2 Chorus

[Chorus] + 1/2 Chorus

[Outro]
  Fig 1 x2


In segments like the beginning of figs 2 and 3, I'm not sure whether he u

Humanity – Grammatrain Chords

Grammatrain
Humanity
(c) 1995 Up In The Mix Music
Transcribed by Jay Mallison  

Play this song with an acoustic guitar only,
trust me it sounds bad on an electric

Intro:
A5 F5  4x

Verse 1:
     A5             F5       A5          F5
        Ooh, no more monsters to live in my head
     A5                  F5        A5              F5
        and I'm blind to frustration in life beyond the dead

Chorus:
     A#5                     A5 A#5              A5
        and I wait for this time that I see in my mind, now
     A#5                    A5         G5
        and I awake from my eternal dream
     A#5                      C5
        and my humanity has died...

A5 F5  2x

Verse 2:
     A5          F5       A5            F5
        Ooh, what sleep is I know I never knew
     A5                    F5             A5          F5
        and all my tears used to drench me have faded into blue

Chorus:
     A#5                     A5 A#5         A5
        and I wait for this time that I see in my mind, now
     A#5                    A5         G5
        and I awake from my eternal dream
     A#5                      C5
        and my humanity has died...

A5 F5  4x

Chorus:
     A#5                     A5 A#5         A5
        and I wait for this time that I see in my mind, now
     A#5                    A5         G5
        and I awake from my eternal dream
     A#5                      C5
        and my humanity has died...

A5 F5   13x    slowly fade out around 10x


Chords: E  A  D  G  B  E
A5------5  7  7  x  x  x
A#5-----6  8  8  x  x  x
C5------8  10 10 x  x  x
F5------x  8  10 10 x  x
G5------3  5  5  x  x  x

-----------------------

Transcribed by Matt Bayer

Thanks to Jay Mallison for doing most of the work.  This is just an
addition with the hammer-on and a few chord changes.

the main riff is a heavily palm muted hammer-on Am and then hammer-on F.
The second time on the F play the high E on the 1st fret.
The nuances are what make this sound good.
Listen to the song for the rhythm.  Thanks.

H= hammer-on

INTRO AND VERSE:

        Am	    F		    Am         F 
E------------------------------------------------1---
B-------1--1--------1--1------------1-1--------1-1---
G---0-H-2--2----0-h-2--2--------0-H-2-2--0--h--2-2---
D---0-H-2--2----0-h-3--3--------0-H-2-2--0--h--3-3---
A---0---0--0----0-h-3--3--------0---0-0--0--h--3-3---
E----------------------------------------------------


Chorus:
i can't post the lyrics, so hopefully the spacing will help with the
chord change timing.

     A#                     Am     A#               Am
        
     A#                     C5      G
       
     A#                     C5
        


A# = 677566
Am = 577555
C5 = x355xx
G  = 355433

What’s Wrong With This World – Shaun Groves Chords

Shaun Groves
White Flag
What's Wrong With This World
Released: July 2005

Intro:
Guitar 1: (the chords are better played as the following)
  A                B                D                E
e-5555555555555555-7777777777777777-5555555555555555-7777777777777777
B-5555555555555555-7777777777777777-7777777777777777-9999999999999999
G-6666666666666666-8888888888888888-7777777777777777-9999999999999999
D-7777777777777777-9999999999999999-7777777777777777-9999999999999999  x2
A-7777777777777777-9999999999999999-5555555555555555-7777777777777777
E-5555555555555555-7777777777777777-5555555555555555-7777777777777777

Focus on the lower 4 strings (E,A,D,G) for A and B, the middle 4 for D and E,
Alternatively, you can try hitting really hard with distortion and let it ring

Guitar 2:
e------------------
B-------9--10-----------9--10------------9--10----------------------------
G-9--6--------9-6-9--6---------9-6-9--6---------11-11--9--11--13(let ring)
D------------------x2
A------------------
E------------------

Treat -- as 1 count, - as 1/2 count, no rests for guitar 1, it should match up

Verse 1:
Guitar 1 (palm mute)
  A           D           F#m                 E
e--
B--
G-------------77777777----1111111111111111----99999999----
D-77777777----77777777----1111111111111111----99999999----x2
A-77777777-x2-55555555-x2-9 9 9 9 9 9 9 9 -x2-77777777-x2-
E-55555555------------------------------------------------

Again, no breaks or rests in transition

Guitar 2  (play in the last 8 power chords of guitar 1)
e-(--------)-55-55-(--------)-55-55-(--------)-55-55-(--------)-9 9 -9 9 -
B-(--------)-55-55-(--------)-55-55-(--------)-55-55-(--------)-1111-1111-
G-(--------)-66-66-(--------)-66-66-(--------)-66-66-(--------)-1111-1111-
D-(--------)-77-77-(--------)-77-77-(--------)-77-77-(--------)-1111-1111-x2
A-(--------)-------(--------)-------(--------)-------(--------)-----------
E-(--------)-------(--------)-------(--------)-------(--------)-----------

Second time around, play the 9,11,11 only twice

Chorus:
Guitar 1&2
  A                B                D                E
e-5555555555555555-7777777777777777-5555555555555555-7777777777777777
B-5555555555555555-7777777777777777-7777777777777777-9999999999999999
G-6666666666666666-8888888888888888-7777777777777777-9999999999999999
D-7777777777777777-9999999999999999-7777777777777777-9999999999999999  x2
A-7777777777777777-9999999999999999-5555555555555555-7777777777777777
E-5555555555555555-7777777777777777-5555555555555555-7777777777777777

Second time around, cut the E short for the acapella part for first chorus.
Leave for the second chorus.

Verse 2:
Guitar 1 (palm mute)
  A           D           F#m                 E
e--
B--
G-------------77777777----1111111111111111----99999999----
D-77777777----77777777----1111111111111111----99999999----x2
A-77777777-x2-55555555-x2-9 9 9 9 9 9 9 9 -x2-77777777-x2-
E-55555555------------------------------------------------

Guitar 2 (change distortion, use Clean JC120 wah or similar, wah to -ah)
         Start on the 4th chord of guitar 1
e----55-55-(55-55)---55-55-(55-55)---55-55-(55-55)---9 9 -9 9 -(9 9 -9 9 -)
B----55-55-(55-55)---55-55-(55-55)---55-55-(55-55)---1111-1111-(1111-1111-)
G----66-66-(66-66)---66-66-(66-66)---66-66-(66-66)---1111-1111-(1111-1111-)
D----77-77-(77-77)---77-77-(77-77)---77-77-(77-77)---1111-1111-(1111-1111-)x2
A-------------------
E---

Unify – United Live Chords

Unify
United Live

words and music by michelle fragar
intro: D A-G(4x)

intro tab:
e|---------|-----5-7-5-------5---5-7-5---------|
B|-----3---|-------------5-7-----------8-7-5---|
G|-2-4-----|-(7)-------7-------6-------------7-|
D|-------0-|-----------------------------------|
A|---------|-----------------------------------|
E|---------|-----------------------------------|
           |--repeat through out the intro-----|
(7)-just play in the second time and through out

verse 1:
D   A - G
D   A - G
Bm  G   A
D/F#  G

verse 2:
D   A - G
D   A - G
Bm  G   A
D/F#  G

chorus:
A  D/F#  G
A  Bm    G
A  D/F#  G -/B- A
G  A     D

verse 3:
D   A - G
D   A - G
Bm  G   A
D/F#  G

interlude:
G  D  Bm  A
G  D  A   A
G  D  Bm  A
G  D  A   A(pause)

that's it...........have a nice worship!
i added a tab for the intro and changed some chords
any comments... pls. email me at Iloilo_jesusfreak
Stephen Juelar 
the Iloilo_jesusfreak

GOD bless!

Candy Can You – Upside-Down Room Chords

CANDY CAN YOU
Written by Upside-Down Room
(c)1995 Spinning Audio Vortex
Daniel Guy
(separated)

these are mostly power chords.  i haven't figured out the solo yet.

OPENNING RIFF:
D|-2-2-5-5-2-2-5-5-2-2-5-7--7\5-
A|-2-2-5-5-2-2-5-5-2-2-5-7--7\5-
E|-0-0-3-3-0-0-3-3-0-0-3-5--5\3-

\ indicates a slide down.  play through that 4 times.

VERSE RIFF 1:
D|-2-2-2-2-2-2-2-2-2-2-2-2-2-2-2-2
A|-2-2-2-2-2-2-2-2-2-2-2-2-2-2-2-2
E|-0-0-0-0-0-0-0-0-0-0-0-0-0-0-0-0

this whole riff is palm-muted.
play through that 2 times, then play the openning riff 2 times.

CHORUS
play the openning riff 4 times.  then there's an instrumental part of
the chorus where the words stop.  it has 2 basic riffs.

RIFF 1
D|-2-2-2-2-2--7--2-2-2-2-2--7--2-2-2-2-2--7--2-2-2-2-2-7
A|-2-2-2-2-2--7--2-2-2-2-2--7--2-2-2-2-2--7--2-2-2-2-2-7
E|-0-0-0-0-0--5--0-0-0-0-0--5--0-0-0-0-0--5--0-0-0-0-0-5

the next riff is during the guitar solos.  this is NOT the solo itself
but rather what goes on in the back-ground.

RIFF 2
D|-2-2--2-2-2--2--2--2--7
A|-2-2--2-2-2--2--2--2--7
E|-0-0--0-0-0--0--0--0--5

the second time you play the chorus, there is a small part between the
two riffs.  i haven't quite figured it out yet, but it sounds like he
is playing a type of E-chord.  i'm still workin on it.

hope this helps!
daniel

Forty Hour Increments – Twothirtyeight Chords

Tabbed by:spookylovin
Title: forty hour increments
Twothirtyeight
Tuning: Dropped D(D A D G B E)


intro
–9----------------------------------------5------------4-----------
----------------------9p7h9-----------------4-5----5-----5-7-------
------------------------------------------------4-------------7----
------7--------------------------6h7p6-----------------------------     x4
----------7h8p7----------------------------------------------------
------------ 


–9----------------------------------------5------------4-----------
----------------------9p7h9-----------------4-5----5-----5-7-------
------------------------------------------------4-------------7----
------7-----------------------9------------------------------------    
----------7h8p7---------------8------------------------------------
------------  


–9----------------------------------------5------------4-----------
----------------------9p7h9-----------------4-5----5-----4---------
------------------------------------------------4--------2---------
------7--------------------------6h7p6-----------------------------     
----------7h8p7----------------------------------------------------
------------

verse 1
------------ 
------------
–9---------9---------5---------------------------------------------
-7---------7------------7-------7----------------------------------   x2
–7---------7----------------7---8—--7------------------------------
–7--------------------------5-------5------------------------------		
chorus
---------------4--4----7------5-5-----------4-4-----------------
–2–2----5------4--4----7---------------5---------------4--------- 
–4–4----7------4--4----7------------4--------------2-------------
–4–4----7-----   x4
-----------------
-----------------


interlude

guitar1
----------------- 
----------------- 
----------------- 
-----------------  x6  
------7----------      
-7-5-----5--7--5--7--9-------------------------------------------------- 

guitar2 (comes in the second time guitar1's part is played)
-----------------
----------------- 
----------9--------------7----------------------------------------------
–11–9–7-------9--7--6---------------------------------------------------  x5
-----------------
-----------------
 
verse 2
----------------- 
----------------- 
–9---------9---------5--------------------------------------------------
-7---------7------------7-------7---------------------------------------    x4
–7---------7----------------7---8—--7-----------------------------------
–7--------------------------5-------5-----------------------------------


chorus
---------------4--4----7------5-5-----------4-4-------------------------
–2–2----5------4--4----7---------------5---------------4---------------- 
–4–4----7------4--4----7------------4--------------2--------------------
–4–4----7---------------------------------------

Moving For The Sake Of Motion – Underoath Chords

UnderOath
moving for the sake of motion
album: define the great line
Drop D, not that it matters here

this is my first tab i had to learn the intro cause its so sick
leave comments and rate all that fun stuff
Underoath rocks!!!
tabbed by :paco

play this first part twice

e--------------------|
B-------------13------10----------------13-------10-------------------------|
G---------------10-------10----------9-----10~------10-------9---10---------|
D--0-12-0-10~------12-------12----12-------------------12------------12-----|
A--------------------|
D--------------------|


this is played over the second time of the intro riff twice listen 4 it

e----------|
B-----10~------------13~------------------------------------------|
G-----------12~-------------10~-----------------------------------|
D----------|
A----------|
D----------|

end intro on
e-----------|
B-----------|
G------------------------------10~---------------------------------|
D------------------------------12~---------------------------------|
A-----------|
D-----------|

Nothing Compares – Third Day Chords

Third Day - Nothing Compares
words by Mac Powell/ music by Third Day
2001 New Spring Publishing, Inc./ Vandura 2500 Songs / ASCAP.
All rights administered by Brentwood Benson Music Publishing Inc.

This is the album version, the live version ends differently, far
too fast at points for me to work out, I’m not up to shredding yet
I’m afraid! I wish good luck to anyone who feels up to tabbing it!
I reckon if you can play that fast you won’t need tabs to follow...

Also, as I’ve worked it out straight from the CD, not the DVD, it might be
slightly wrong in which string is played and that kind of thing. And there
may be some notes I couldn’t quite pick out but I reckon it’s close enough.
Sounds good when I play along anyhow. Enjoy!

Chords:                             Tab notation:
A   – x02220    D   - xx0232        ^ - bend up     h – hammer on
E   – 022100    Bm  - x24432        / - slide up    p – pull off
F#m – 244222                        \ - slide down    - beginning and
                                                         end of phrase

Rhythm Guitar:
clean for first verse, then adding gain:

Verse:     Chorus:              Bridge:
A E F#m  A E F#m D A E F#m  Bm E Bm E
                                Bm A E G


Lead Guitar:
slight touch of wah:
almost certainly uses a slide. It’s only the times when 2 notes are played at
once that makes me doubt, which may mean it’s in different tuning (DADF#AD?):

Chorus 1: Same throughout except second time through from the high D (10 on e)
e---------------9---10-9-10-/12------9----------------9---10-9-10-/12------9-
B----10--------------------------9\7-7-----10--------------------------9\7-7-
G-/9-----/9-11--------------------------/9-----/9-11-------------------------
D----------------------------------------------------------------------------
A----------------------------------------------------------------------------
E----------------------------------------------------------------------------
  A       E F#m   D          A   E F#m  A      E  F#m     D     A      E F#m 


Verse 2: come in on the second bar of F#m each line
e-------------------------------------------------------------------------
B-------------------------------------------------------------------------
G---------------------------/11-9--------9--------------------------------
D-----------7h9-/11p9-7-------------9h11----11---------7h9-/11-11-9-7-----
A-------7h9----------------------------------------7h9--------------------
E-------------------------------------------------------------------------
  A E F#m             A E F#m               A E F#m               A  E F#m


Chorus 2, second time through variation:
e---------------9---10-9--------------
B----10------------------9h10---9-7---
G-/9-----/9-11------------------------
D-------------------------------------
A-------------------------------------
E-------------------------------------
  A      E  F#m     D     A      E F#m


Bridge (almost certainly using a slide, if you’ve not
        got one just slide up and down the notes lots):
e----------
B-/12---/14-12-10--10/12------9/10-/12---/14-12-10----------------
G--------------------------------------------------11-11-9---9-11-
D----------
A----------
E----------
  Bm                E               Bm             E              

e----------------------------------------------------12---14^-14^-
B-/12---/14-12-10-/12-10-9----------------12-14---15--------------
G----------------------------11---9-12-14-------------------------
D----------
A----------------

Reconnecting – Tait Chords

Reconnecting
Tait

This song is in a low B tuning. It was probably meant to be played on a 
7-string or baritone, but since I don't have real heavy strings on my guitar 
and it starts to buzz if I tune it that low, I tabbed it out for drop c.
There is only one chord in the song that is lower than the c and you
can just play it an octave higher than it is played on the song and it sounds
fine. If you do have a 7-string or can tune your guitar that low then just 
follow the chord names.

you only need to tune the top 3 strings low for this song. 

No guitar first verse.

Chorus
                                              E5       High B5
G-3333-6666-1111-11-11-11-11-               C-88888888-11-11-11-11-11-
G-3333-6666-1111-11-11-11-11- x3, then this G-88888888-11-11-11-11-11-
C-3333-6666-1111-11-11-11-11-               C-88888888-11-11-11-11-11-
  Eb5  F#5  C#5  B5-This is what you play lower, but not this ^

Verse Second Time

palm mute
C-3-3-                 C-66666666-88888888/9/10
G-3-3- repeat x3, then G-66666666-88888888/9/10
C-3-3-                 C-66666666-88888888/9/10

For the bridge, just play the Chorus chords but play 
them 8 times instead of 4

Chorus


Enjoy:-) Keith perez

Going Under – This Beautiful Republic Chords

This Beautiful Republic - Going Under
Even Heroes Need a Parachute
Copyright 2007

my first tab 
Tuning: drop D

im only gonna put the chords in their proper order without the rythem.

Intro

E| nothing here
b| or here
g| 8     10  6    10 10 8s10          
d| x  8  x   x RE x  x  xsx  repeat   1
a| 6  8  8   4    8  8  6s8  to 'RE'  1
d|    8                               1


verse 1

b|6p4  6s7 (repeat 8 times)

Pre chorus 1

B power chord. 

chorus

same as intro, except add  g| 13  second time through.
                           d| x
                           a| 11

repeat verse

pre chorus 2: i got some of it, but need help! bridge is similar to this part.

repeat chorus

bridge

e|
b|   2
g|
D| 1    2~    6
a|                4    1~   (repeat)
d|                                  

dont know the part during screams.


quiet chorus

a|       6  4
d| 6  8        6  8  4  1

repeat chorus to end.
                

This Beautiful Republic released their first CD (Even Heroes need a parachute) 
and it is the best CD i have ever owned. every song is great. they're on the
rise, and soon, everyone will know their names. im lucky enough to call them 
friends. i know more of their songs, but there are parts that i cant figure
out in them. and tabbing takes too long, so pitch in everybody!

thanks. eric. 

The Way – Telecast Chords

I saw these guys four nights in a row in concert.  I could see up Josh White's
nose I was so close and I also asked him personally how to play this song so
its right.

Capo 5

Verse: 
C  Am  E

1st Prechorus:
F  G  Am

Chorus:
F  C  G 
After the second time through the chorus he does a little a walkdown that starts
on Am then goes to Am/B, then back to the verse.

On the second prechorus, its a bar longer and he does the same walkdown as right
after the chorus, except in reverse...so the second prechorus looks like this:
F  G  Am  Am/B

Also, in the verse on the C, he does a little hammer on that goes like this
e|0---|   
B|0h1-|
G|0---|
D|0h2-|
A|3---|
E|3---|

The main riff in the beginning goes like this:
e|8-8-8-8-8-6-6-6-6-5-5-5---/|8-8-8-8-8-6-6-6-6-5-3-1|

Rawkfist – Thousand Foot Krutch Chords

“Rawkfist”
Thousand Foot Krutch
Phenomenon

Fun Song
Drop D Tuning

Intro
E---------
B---------
G---------
D---2---2
A---2---2
D---2---2

Verses
E---------------------------
B---------------------------
G---------------------------    3x
D---12h14xxxx12h14xxxxxxxx
A---12h14xxxx12h14xxxxxxxx   
D---12h14xxxx12h14xxxxxxxx

E------------------
B------------------
G------------------
D---12h14xxxx5-4-2
A---12h14xxxx5-4-2
D---12h14xxxx5-4-2

Chorus
E-----------
B-----------
G-----------
D---9—12—7
A---9—12—7
D---9—12—7 
“All I know….”

E---------------
B---------------
G---------------
D---9—12—7—10
A---9—12—7—10
D---9—12—7—10

E---------------------
B---------------------
G---------------------
D---5—0—2----5—0—7
A---5—0—2----5—0—7
D---5—0—2----5—0—7
“Light it up now…”

E--------------------------
B--------------------------
G--------------------------
D---2—2—5b---2-2—5b5b5b
A---2—2—5b---2-2—5b5b5b
D---2—2—5b---2-2—5b5b5b
Rawkfist

E------------------
B------------------
G------------------
D---2—2—5b---9--8
A---2—2—5b---9--8
D---2—2—5b---9--8

Bridge
B-------
G-------  4x
D---2—2
A---2—2
D---2—2
“That’s the sound when…”

E-----------------------------------------
B----------------------------------------8 (play this the second time)
G----------------------------------------7
D---5b-5b—2—5b-5b--2--5b5b5b5b--2------
A---5b-5b—2—5b-5b--2--5b5b5b5b--2------
D---5b-5b—2—5b-5b--2--5b5b5b5b--2------

Wes Dogg
j_freak11