Tag: second

Barbara Lynn – Second Fiddle Girl chords

 Second Fiddle Girl:Barbara Lynn.
#63 on BB Hot 100 on JAMIE Records
in 1962.

INTRO:  C A E A E 

#1.
           A 
Hey, hey, hey, you've seen the world.
 D F 
You went out with every girl.
            A E 
But let me hip you, I won't be your 
               A E 
second fiddle girl.

#2.
          A 
All your letters you said you were true.
 D F 
When I got back I heard the news.
            A E 
So, let me hip you, I won't be your second 
        A E 
fiddle girl.

#3.
           A D 
Hey, hey, hey, you know I love you..do 

anything you ask me to.
             A E 
But in this case I won't be your second 
        A E 
fiddle girl.


INTERLUDE:  A D Ebm Am A E A E 

#4.
 A E A 
I packed your things, now, there's the door.
 D Dm D F 
Stay out of my life, I don't want you no more.
            A E 
So, let me tell you that I won't be your 
               A E 
second fiddle girl.

#5.
           A D 
Hey, hey, hey, you know I love you..do 
                     F 
anything you ask me to.
             A E 
But in this case I won't be your second 
        A E 
fiddle girl.

OUTRO:
 A E A 
I won't be your second fiddle girl.
 A E A 
I won't be your second fiddle girl.
 A E A 
I won't be your second fiddle girl..(Fade.)



A sixties smash from Kraziekhat.


Second Guess chords – You Plus Me

 -----------------------------------------------------------------------------------------
                                  SECOND GUESS - You+Me
-----------------------------------------------------------------------------------------
 Carriep63 for ultimate-guitar.com
http://profile.ultimate-guitar.com/carriep63/

So I hesitated even tabbing this out because the verses are so difficult for me! (I am 
not a picker/fingerstyle guitarist!) But, I figured you guys might want to strum along
with some chords and figure it out yourself, so here they are from what I can figure.

Play the C/G barred to make the switch easier 335553

====================
      CAPO 1
====================


==VERSE==
 C/G Bb C/G B 
Ain't got no reason but I've got rhymes
      C/G Bb C/G Bb 
I've spent too much of what I've earned just trying to feel alive
 C/G Bb C/G Bb 
I wish I could rewrite the stories of the past
          C/G Bb C/G Bb 
But you can't go back and change what's done and start over where you began


==CHORUS==
 Dm Bb Gm Bb 
I don't know where to go from here now
 Dm Bb Gm Bb 
Something still lingers though, it's weighing me down
 Dm Bb Gm Bb 
I know the sun will shine again
          Dm C/G Bb Gm 
Back and forth it seems we'll remain until the end

 C/G B C/G B C/G B C/G B 


==VERSE==
 C/G B C/G B 
One step too many, time after time
 C/G B C/G B 
Fucking up 'round every turn, sick of how I'm feeling inside


==CHORUS==
 Dm Bb Gm Bb 
I don't know where to go from here now
 Dm Bb Gm Bb 
Something still lingers though, it's weighing me down
 Dm Bb Gm Bb 
I know the sun will shine again
          Dm C/G Bb Gm 
Back and forth it seems we'll remain until the end


==BRIDGE==
 C/G Bb 
Back and forth until the end
          Dm Gm 
Why must everything be a second guess?
 Bb C/G 
Back and forth until the end
          Dm Gm 
Why must everything be a second guess?

 
==CHORUS==
 Dm Bb Gm Bb 
I don't know where to go from here now
 Dm Bb Gm Bb 
Something still lingers though, it's weighing me down
 Dm Bb Gm Bb 
I know the sun will shine again
          Dm C Bb 
Back and forth it seems we'll remain until the end

Second Chance chords – Praise And Worship

 Verse 1

  B F# 
   You called my name, reached out Your hand
  G#m E C#m 
   Restored my life, and I was redeemed
        E F# 
   The moment You entered my life

Verse 2

  B F# 
   Amazing grace, Christ gave that day
  G#m E C#m 
   My life was changed, when from my shoulders
    E F# 
   Fell the weight of my sin

Chorus
                               B 
   So it’s with everything I am
                          F# 
   I reach out for Your hand
                   G#m 
   The hope for change
                             E 
   The second chance I’ve gained

                       B 
   On You I throw my life
                           F# 
   Casting all my fears aside
                                 G#m 
   How could greater love than this
                    E 
   Ever possibly exist

Verse 3

  B F# 
   Consume my thoughts
                  G#m 
   As I rest in You
                E C#m 
   I’m now in love with a Saviour
       E F# 
   Bearing the marks of His love

Chorus (x2)

Pre-Bridge

    C#m F# 

Bridge
             B 
   So I’ll wait upon You now
             F# 
   With my hands released to You
              G#m 
   Where a little faith’s enough
              E 
   To see mountains lift and move
              B 
   And I’ll wait upon You now
         F# 
   Dedicated to Your will
             G#m 
   To this love that will remain
        E 
   A love that never fails


Pre-Bridge
Bridge (x2)

Second Breath Tabs by Arcane Roots

 Intro
E|----------------------------------|
B|----------------------------------|
G|----------------------------------|
D|--7-7-7-7-7-7-7-7--7-7-7-7-7-7-7--|
A|--5-5-5-5-5-5-5-5--5-5-5-5-6-6-6--|
E|----------------------------------|

Verse
E|----------------------------------|
B|----------------------------------|
G|--8-7-7-7-7-7-7-7--7-7-7-7-8-8-8--|
D|--7-7-7-7-7-7-7-7--7-7-7-7-7-7-7--|x2
A|--6-5-5-5-5-5-5-5--5-5-5-5-6-6-6--|
E|----------------------------------|
                                                        PM------     
E|----------------------------------------------------------------|
B|----------------------------------------------------------------|
G|----------------------------------------------------------------|
D|-5-5-5-5-6-6-6-6--5-5-5-6-6-6-6-5-5-5-5-6-6-6-6--5-5-5-5-6-7-8--|
A|-5-5-5-5-5-5-5-5--5-5-5-5-5-5-5-5-5-5-5-5-5-5-5--5-5-5-5-6-7-8--|
E|-3-3-3-3-4-4-4-4--3-3-3-4-4-4-4-3-3-3-3-4-4-4-4--3-3-3-3-4-5-6--|

E|----------------------------------|
B|----------------------------------|
G|--8-7-7-7-7-7-7-7--7-7-7-7-8-8-8--|
D|--7-7-7-7-7-7-7-7--7-7-7-7-7-7-7--|x2
A|--6-5-5-5-5-5-5-5--5-5-5-5-6-6-6--|
E|----------------------------------|

E|----------------------------------------------------------------|
B|----------------------------------------------------------------|
G|----------------------------------------------------------------|
D|-5-5-5-5-6-6-6-6--5-5-5-6-6-6-6-5-5-5-5-6-6-6-6--5-5-5-6-6-6-6--|
A|-5-5-5-5-5-5-5-5--5-5-5-5-5-5-5-5-5-5-5-5-5-5-5--5-5-5-5-5-5-5--|
E|-3-3-3-3-4-4-4-4--3-3-3-4-4-4-4-3-3-3-3-4-4-4-4--3-3-3-4-4-4-4--|

Pre Chorus                                                        NH
E|----------------------------------|---------------------------------|
B|----------------------------------|---------------------------------|
G|----------------------------------|-----------------------------5---|
D|----------------------------------|-----------------------------5---|
A|----------------------------------|---------------------------------|
E|--4-3-0-1-3-0-4-3-0-1-3-4-3-0-1-3-|-4-3-0-1-3-0-4-3-0-1-3-4-3-0-----|

Chorus
E|-----------------------------------|    |----------|
B|-----------------------------------|    |----0-----|Feedback into next section
G|--7-7---1010--1010--------10101010-|    |----0-----|
D|--7-7---1010--------9-9-9-9-9-9-9--|x4  |----0-----|
A|--5-5---8-8---1010--8-8-8-8-8-8-8--|    |----0-----|
E|--------------8-8---7-7-7-7-7-7-7--|    |----------|

Pre Chorus                                                         NH
E|----------------------------------|---------------------------------|
B|----------------------------------|---------------------------------|
G|----------------------------------|------------------------------5--|
D|----------------------------------|------------------------------5--|
A|----------------------------------|---------------------------------|
E|--4-3-0-1-3-0-4-3-0-1-3-4-3-0-1-3-|-4-3-0-1-3-0-4-3-0-1-3-4-3-0-----|

Chorus
E|-----------------------------------|    
B|-----------------------------------|    
G|--7-7---1010--1010--------10101010-|    
D|--7-7---1010--------9-9-9-9-9-9-9--|x4  
A|--5-5---8-8---1010--8-8-8-8-8-8-8--|    
E|--------------8-8---7-7-7-7-7-7-7--| 

E|------------------------------------|
B|------------------------------------|
G|-7-------------6--------------------|
D|-8-------------7--------------------|
A|-8-------------7--------------------|
E|-6-------------5--------------------|

Break
E|-----------------------------------------------------------------------|
B|-----------------------------------------------------------------------|
G|---------------------------8-------------------------------------------|
D|-----------------------------------------------------------------------|x2
A|--5---5--6-5--5-6b---5--5----5-6b---5---5--6-5--5-6b-------------------|
E|------------------------------------------------------4-3-0-1-

Another Second Tabs by Yodelice

 
Riff 1  
              C                  C                 C                      C             
E- 3 *- 0 *-||-------0-------0-|--------0--------|----------------------|---------------3*-0*-||
B-----------||---4-------3-----|---1-----------1-|-------1--------------|---1-----------------||
G-----------||-----------------|-----------3-----|---2----------------0-|-------0-------------||
D-----------||-----------------|-----------------|-----------0*- 3*-----|-----------3---------||
A-----------||-3---3---3---3---|-3---3---3---3---|-3---3---3--------3---|-3---3---3---3-------||
E-----------||-----------------|-----------------|----------------------|---------------------||

Riff 2
 Am                         Bb                    C                       C
E--------------------------|---------------------|-----------------------|-----------------|
B-------------1----------1-|-----------1---3---1-|-----------------------|-----------------|
G-----0*-2*-------0*-2-----|---0*-2*-------------|-------------0---2---3-|----2---0--------|
D--------------------------|---------------------|----0*-2*--------------|-----------3---2-|
A--0--------0---0------0---|-1-------1---1---1---|-3---------3---3---3---|-3---3---3---3---|
E--------------------------|---------------------|-----------------------|-----------------|


Break 
 Am                Bb                C                 C
E-----------------|-----------------|-----------------|-----------------|
B-----------------|-----------------|-----------------|-----------------|
G---2---2---2---2-|---0---0---0---0-|---0---0---0---0-|---0---0---0---0-|
D-----------------|-----------------|-----------------|-----------------|
A-0---0---0---0---|-1---1---1---1---|-3---3---3---3---|-3---3---3---1---|
E-----------------|-----------------|-----------------|-----------------|


Intro : Riff 1 (2x)
Couplet : Riff1 - Riff 2 - Riff 1 - riff 2
Refrain : RIff 2 ( 2x )
Intro 
Couplet
Refrain ( 2 x ) 
Break ( 2x )
Riff 2 ( 2x )
Refrain ( 2x )
Riff 2 ( 2x )
Intro ( 2x )

Rawnald Gregory Erikson The Second Tabs by Starfucker

 Artist: Starfucker
      Title: Rawnald Gregory Erikson the Second
            Starf**ker


The actual guitar playing is pretty simple. The "x" is a mute, which is what it sounds 
like to me, or it can be replaced with another 12 (so you get 12-12-14 followed by the 12 
on the D string), or you can just omit the "x" and play it straight-forward.
        Sorry if the Guitar 1, Guitar 2 looks confusing, I wanted to juxtapose both tabs to 
show that both guitars are plucked in sync.
It sounds good if you layer these on a loop pedal.

GUITAR 1:
E|-------------------------------------------------------------------------------------------|
B|-------------------------------------------------------------------------------------------|
G|-------------------------------------------------------------------------------------------|
D|------------------------------12------------------------------12---------------------------|
A|---14--12--14--12--14--12-x14------14--12--14--12--14--12-x14-----14--12--14--12-----------|
E|-------------------------------------------------------------------------------------------|

Guitar 2:
E|-------------------------------------------------------------------------------------------|
B|-------------------------------------------------------------------------------------------|
G|-------------------------------------------------------------------------------------------|
D|-------------------------------------------------------------------------------------------|
A|---10--10--10--10--10--10--10--10--10--10--10--10--10--10--10--10--9---9---9---9-----------|
E|-------------------------------------------------------------------------------------------|


GUITAR 1:
E|-------------------------------------------------------------------------------------------|
B|-------------------------------------------------------------------------------------------|
G|-------------------------------------------------------------------------------------------|
D|--------------12------------------------------12------------------------------12-----------|
A|---14--12-x14------14--12--14--12--14--12-x14------14--12--14--12--14--12-x14--------------|
E|-------------------------------------------------------------------------------------------|

Guitar 2:
E|-------------------------------------------------------------------------------------------|
B|-------------------------------------------------------------------------------------------|
G|-------------------------------------------------------------------------------------------|
D|-------------------------------------------------------------------------------------------|
A|---9---9---9---9---10--10--10--10--9---9---9---9/--0---0---0---0/--7---7---7---7-----------|
E|-------------------------------------------------------------------------------------------|


The bass part is transcribed for guitar. I think you get the best tone playing on the 
low E string, but you can incorporate the A string and get the same notes if you want to 
lessen hand movement.

Bass:
E|-------------------------------------------------------------------------------------------|
B|-------------------------------------------------------------------------------------------|
G|-------------------------------------------------------------------------------------------|
D|-------------------------------------------------------------------------------------------|
A|-------------------------------------------------------------------------------------------|
E|---3-----3-3-------3-----3-3-------3-----3-3-------3-----3-3-------7-----7-7---------------|

E|-------------------------------------------------------------------------------------------|
B|-------------------------------------------------------------------------------------------|
G|-------------------------------------------------------------------------------------------|

The Second Coming solo Tabs by Chelsea Grin

 http://www.youtube.com/watch?v=etuTIzpqEqA - Click the link and skip to 2:38
to see how I play the solo, this should help you match the tab up with
different parts of the solo if you are struggling.


D|----14-10--10------10----14-10--------13-9--9------9-13-9-14-18-14-19-23-|
A|---------12--12------12-------12----------11-11--------------------------|
F|--11-----------11------11-------11--10---------10------------------------|
C|-----------------12---------------12-------------11----------------------|
G|-------------------------------------------------------------------------|
C|-------------------------------------------------------------------------|

Now this, bit is slightly different in the cover, but that shouldn't be a problem.
In the cover I played this part lower down, as it wouldn't record properly, but this
is the way it should be played.

D|----24-20--20------20----24-20--------23-19--19------15-19-15--------15-19-|
A|---------22--22------22-------22-----------21--21------------14-18-14------|
F|--21-----------21------21-------21--20-----------20------------------------|
C|-----------------22---------------22---------------21----------------------|
G|---------------------------------------------------------------------------|
C|---------------------------------------------------------------------------|

D|---14-10--10------10----14-10--------14-10--10------10-----------------|
A|--------12--12------12-------12-----------12--12------12---------14-17-|
F|-11-----------11------11-------11--11-----------11------11--12-15------|
C|----------------12---------------12---------------12------12-----------|
G|-----------------------------------------------------------------------|
C|-----------------------------------------------------------------------|

D|-----13h17p13h17t18p17p13----13t18p17p13t20p17p13----13t22p17p13-|
A|---15-----------------------15---------------------15------------|
F|-14-----------------------14---------------------14--------------|
C|-----------------------------------------------------------------|
G|-----------------------------------------------------------------|
C|-----------------------------------------------------------------|


D|---17-13--13--------------13h17t20p17p13-------------------------|
A|--------15--15----------15--------------15-----------------------|
F|-14-----------14------14------------------14---------------------|
C|----------------15--15----------------------15-------------------|
G|------------------17--------------------------17~~~~~~~~~~~~~~~~-|
C|-----------------------------------------------------------------|
                    -----------------------------------------------|
                    This part is played faster

---------

t= tap
h= hammer on
p= pull off
~= hold note