Tag: sing

Sing chords – Glen Campbell

 Sing
Glen Campbell


Intro   A E Bm A E Bm A 


Verse 1

 F#m Bm 
Baby you've been going so crazy
                            F#m                                     
Lately nothing seems to be going right
                             Bm 
So low, why you have to get so low
                                       F#m                                    
You're so, You've been waiting in the sun too long

Chorus 1

           A E Bm E Bm A 
If you'll sing  sing  sing  sing  sing  sing  sing
                        E Bm 
For the love you bring won't mean a thing
                           A 
Unless you sing sing sing sing

Verse 2

 F#m Bm 
Hold her, crying off your shoulder
                                              F#m 
Hold her, and tell her everything's gonna be fine
                              Bm 
Surely, you've been going to early
                               F#m A 
Hurry, cause no ones gonna be stopped Na na na na  na na na 
      E Bm E A 
sing sing sing    sing  sing sing  sing
                          E Bm 
For the love it'll bring won't mean a thing
                 E A 
Unless you sing sing sing sing  ooooh

riff   A E Bm A E Bm A 

Verse 3

 F#m Bm 
Baby  there's something going on today
              F#m Bm 
But I Say... nothin' nothin' nothin'   nothin' nothin' nothin'  nothin' nothin'
 D A E Bm A 
Na na na na na na na now  sing sing sing sing sing sing sing   
 F#m A E Bm 
All the love you bring won't mean a thing
                 E A F#m 
Unless you sing sing sing sing

Outro

 A E Bm A 
So sing sing sing   sing sing sing sing
         F#m A E Bm 
All the love you bring won't mean a thing
                       A 
Unless you sing, sing sing sing


flyinglibra51
God Bless Glen Travis Campbell

A Front Seat To Hear Ole Johnny Sing chords – Shel Silverstein

 G 
Now you know some fellas they want fame and fortune

                                       D7 
Yeah and other fellas they just wanna swing

 G 
But all I wanted all my life

       C 
Was a TV set and a truck and a wife

       D7 G 
And a front row seat to hear ole Johnny sing


                     D7 G 
Yeah the TV and the truck I got on credit

                                                 D7 
And I got that girl with a little old Woolworth ring

     G 
And life was warm and life was sweet

     C 
But still it was kinda incomplete

           D7 G 
Without a front row seat to hear ole Johnny sing


     D7 
Hey John you walk the line do Delia one more time


And when you do them Cotton Fields you warm this heart of mine

  
    G D7 G 
So one day I thought hey I'm gonna do it (That's what I said)

                                                D7 
So I mortgaged the farm and pawned her wedding ring

   G 
I sold the gold tooth out of my mouth

     C 
And jumped in the pickup and headed south

       D7 G 
For a front row seat to hear ole Johnny sing



I hit Nashville cold and wet and hungry

                                             D7 
I said I'm here bring him on let him do his thing

          G 
But they told me down at the Old Pit Grill

             C 
I'd have to go all the way to Andersonville

       D7 G 
For a front row seat to hear ole Johnny sing


                   D7 G 
I found his house knocked on the door and it was opened

                                                   D7 
By a brown haired girl and a baby with a teethin' ring

   G 
I said I seen you somewhere before

           C 
But don't stand there and block the door

          D7 G 
I want a front row seat to hear ole Johnny sing


     D7 
Hey John you walk the line do Delia one more time


And when you do them Cotton Fields you warm this heart of mine


              
She said I'd have to go down to The Opry

                                                 D7 
And the feller there said I'd have to wait till spring

         G 
He said we've been sold out for months and months

          C 
And this poor insane fellah wants

   D7 G 
A front row seat to hear ole Johnny sing


               
Well he said a couple more things and I started cryin'

                                                        D7 
And then he laughed at me and that's when I started to swing

      G 
Well I bust through the doors in a roaring rage

 C 
Crawled over the crowd till I reached the stage

       D7 G 
For a front row seat to hear ole Johnny sing


     D7 
Hey John you walk the line do Delia one more time


And when you do them Cotton Fields you warm this heart of mine



Then some crazy guard started shootin'

                                             D7 
I shot back and the next thing I know I was winged and on the floor

        G 
When a guy in a voice kinda deep and low

      C 
Says boy that's a mighty long way to go

       D7 G 
For a front row seat to hear anybody sing



And I guess that judge he weren't no music lover

                                            D7 
I got fifteen months but that don't mean a thing

       G 
Cause yesterday in the prison yard

   C 
A show come through and har de har

         D7 <sp

Sing It All Away chords – Walk Off The Earth

 [No Guitar here]
Oh oh oh 
Sing it all away, sing it all away my darlings 

 A D A 
I know a place that will take you away
          D A E A 
Your troubles no longer remain from the day
 A D A 
I found a love there it's hard to escape
      D A E A 
It cures me at night, but it hurts when I wake

 A D A 
There's no judge and the jury's at bay
          D A E A 
Cause this is our house where melodies play
 A D A 
If worries still linger my friends and I say
 D A E A 
Top up your cup and let's sing it all away

 A 
Oh oh oh 
 D A D A E 
Sing it all away, sing it all away my darlings
 A 
Oh oh oh 
 D A D A E 
Sing it all away, sing it all away and I'll carry you home
 A D A D A E E 
Oh oh oh...

 A 
Sometimes people say don't burn your life away
 D 
But they don't hear this song it's just a holiday
 A E 
From the go go go go I say no no no worries 
 E 
Here let's all just sway top up your cup 
                   A 
Let's sing it all away 

 A 
Oh oh oh 
 D A D A E 
Sing it all away, sing it all away my darlings
 A 
Oh oh oh 
 D A D A E 
Sing it all away, sing it all away and I'll carry you home
 A D A D A E 
Oh oh oh...
 A D A D A E 
Oh oh oh...

 D A E                                  
The last call sounds, bartender says it loud
 D A E 
Just one more round before they kick us out
 D A F#m E 
If you fall down I'll meet you on the ground
 D E 
No worries here, let's all just sway top up your cup 
 E 
Let's sing it all away 

 A 
Oh oh oh 
 D A D A        
Sing it all away, sing it all away my darlings
 A 
Oh oh oh 
 D A D A E 
Sing it all away, sing it all away my darlings
 A 
Oh oh oh 
 D A D A E 
Sing it all away, sing it all away and I'll carry you home
 A D A D A E 
Oh oh oh...
(And I'll carry you home)

 D A D A E 
Oh oh oh...
(And I'll carry you home)

 D A E 
Oh oh oh...
(And I'll carry you home)

 D A E 
Just one more round
 E 
(I'll carry you home)
 D A E 
If you fall down

 A D A 
When worries still linger my friends and I say
 D A E A 
Top up your cup and let's sing it all away

I Will Sing The Wondrous Story chords – Hymnal

 I Will Sing the Wondrous Story
Words by Francis H. Rowley, 1854-1952
Music by Peter P. Bilhorn, 1865-1936

A7:x02020
D:xx0232
G:320003


Verse 1:

         D 
I will sing the wondrous story
          A7 D  
Of the Christ Who died for me
         D 
How He left His home in glory
          A7 D 
For the cross of Calvary


Refrain:

            D 
Yes, I'll sing the wondrous story
          A7 D  
Of the Christ Who died for me
          D 
Sing it with the saints in glory
          A7 D G D 
Gathered by the crystal sea


Verse 2:
I was lost, but Jesus found me
Found the sheep that went astray
Threw His loving arms around me
Drew me back into His way

Verse 3:
I was bruised, but Jesus healed me
Faint was I from many a fall
Sight was gone, and fears possessed me
But He freed me from them all

Verse 4:
Days of darkness still come o'er me
Sorrow's paths I often tread
But the Savior still is with me
By His hand I'm safely led

Verse 5:
He will keep me till the river
Rolls its waters at my feet
Then He'll bear me safely over
Where the loved ones I shall meet

Sing Little Bird Sing chords – Left Banke

 
SONG:   SING LITTLE BIRD SING
ARTIST: LEFT BANKE
TAB BY: DON CZARSKI
EMAIL:  GUITARZAN7@HOTMAIL.COM

               SING LITTLE BIRD SING
                     LEFT BANKE

INTRO:   Bb Eb Bb Eb 

VERSE:
  Bb Eb Bb 
Sing, little bird sing
  Eb Bb 
Carry the song, 
      Eb Bb 
Like it was your own

  Bb Eb Bb 
Smile, little bird, grin
 Eb Cm Gm 
No one along will be alone


CHORUS:
  Cm               
I'll sing you a song
         Eb F    
That's traveled through time 
     Eb Bb 
For ten thousand years
 Cm 
And if I'm not wrong
       Eb F 
It's your song and mine, 
     Eb Ebm Bb 
May I dry your tears?


VERSE:
 Bb Eb Bb 
I hasten to please
  Eb Bb 
Tell me I may 
  Eb Bb 
Sing me one time
    Eb Bb 
I fall to my knees
  Eb Cm Gm 
Singing your song and offering mine


CHORUS:
 Cm 
I'll stay to your side
      Eb F Eb Bb 
And travel by night to far away sands
 Cm 
  I'll cast off my pride
      Eb F 
With one song inside, 
  Eb Ebm Bb 
Heart in my hands


INSTRUMENTAL:  

 Bb Eb Bb Eb Bb Eb Bb Eb Cm F# F# Ab Eb 


VERSE:
 Bb Eb Bb 
Sing, little bird sing
  Eb Bb Eb Bb 
Light up the sky the way that you do
    Eb Bb 
I won't say a word
  Eb Cm 
Plead through my eyes, 
                   Gm 
I'm pleading with you


CHORUS:
 Cm 
I'll sing you a song
         Eb F 
That's traveled through time 
     Eb Bb 
For ten thousand years
  Cm 
And if I'm that wrong
       Eb F 
It's your song and mine 
      Eb Ebm 
And I'll dry your tears


=============== CAPO 3rd FRET ===============

SONG:   SING LITTLE BIRD SING
ARTIST: LEFT BANKE
TAB BY: DON CZARSKI
EMAIL:  GUITARZAN7@HOTMAIL.COM


               SING LITTLE BIRD SING
                    LEFT BANKE

CAPO: 3rd FRET

INTRO:   G C G C 


VERSE:
  G C G 
Sing, little bird sing
  C G 
Carry the song, 
      C G 
Like it was your own

  G C G 
Smile, little bird, grin
 C Am Em 
No one along will be alone


CHORUS:
  Am 
I'll sing you a song
         C D 
That's traveled through time 
     C G 
For ten thousand years
 Am 
And if I'm not wrong
       C D 
It's your song and mine, 
     C Cm G 
May I dry your tears?


VERSE:
 G C G 
I hasten to please
  C G 
Tell me I may 
  C G 
Sing me one time
    C G 
I fall to my knees
  C Am Em 
Singing your song and offering mine


CHORUS:
 Am 
I'll stay to your side
      C D C G</

Sing It Again Tabs – Planetshakers

 -------------------------------------------------------------------------------
                             Sing It Again - Planetshakers
-------------------------------------------------------------------------------
: kuryat
 linedwell.rainrix08

Tuning:D A D G B E
Intro:
e|-----------------------------------------------------------------------------------------------|
B|-----------------------------------------------------------------------------------------------|
G|-----------------------------------------------------------------------------------------------|
D|-----------------------------------------------------------------------------------------------|
A|--4------4--8------4--4------4--8------4-------------------------------------------------------|
E|--4-4-4-4-6-8-8-8-8-3-4-4-4-4-6-8-8-8-8-6------------------------------------------------------|

Pre-Chorus:
e|-----------------------------------------------------------------------------------------------|
B|-----------------------------------------------------------------------------------------------|
G|-----------------------------------------------------------------------------------------------|
D|-----------------------------------------------------------------------------------------------|
A|-----------------------------------------------------------------------------------------------|
E|--3-3-3-3-4-4-4-4-8-8-8-8-6-6-6-6-(x2)---------------------------------------------------------|

Chorus (phase 1):
e|-----------------------------------------------------------------------------------------------|
B|-----------------------------------------------------------------------------------------------|
G|-----------------------------------------------------------------------------------------------|
D|--4-4-4-4-8-8-8-8-6-6-6-6-6-6-6----------------------------------------------------------------|
A|--4-4-4-4-8-8-8-8-6-6-6-6-6-6-6---(x2)---------------------------------------------------------|
E|--4-4-4-4-8-8-8-8-6-6-6-6-6-6-6----------------------------------------------------------------|
Chorus (phase 2):
e|-----------------------------------------------------------------------------------------------|
B|--99999999999999999999999999999----------------------------------------------------------------|
G|--66666666666666666666666666666----------------------------------------------------------------|
D|-----------------------------------------------------------------------------------------------|
A|-----------------------------------------------------------------------------------------------|
E|-----------------------------------------------------------------------------------------------|
Chorus (phase 3):
e|-----------------------------------------------------------------------------------------------|
B|--999999999999999999999999---------------------------------------------------------------------|
G|--666666666666666655555555---------------------------------------------------------------------|
D|-----------------------------------------------------------------------------------------------|
A|-----------------------------------------------------------------------------------------------|
E|-----------------------------------------------------------------------------------------------|

e|---------------------------|
B|---------------------------|
G|---------------------------|
D|---------------------------|
A|---------------------------|
E|--11~-------------9/11\4~--|

e|-----------------------------------------------------------------------------------------------|
B|-----------------------------------------------------------------------------------------------|
G|-----------------------------------------------------------------------------------------------|
D|-----------------------------------------------------------------------------------------------|
A|---------6-6-6-6----------------(x2)------------------------------

Sing It To Me chords – Dustin Lynch

 Standard Tuning Capo 1: Great song, somewhat unknown at the moment though.


 G D  
Girl the way you move when you move is like a melody
 Bm A 
Yeah, the music hits when your lips get a hold of me
 G D          
You know just the way, what to play to keep me hanging on
 Bm A 
Your kiss is like a song

            G Bm  
Sing it to me 'til the morning sun comes up
                   A  
Love the sound of your love, turn it up, turn it up
         G Bm 
Hitting repeat, girl, I got you stuck in my head
                   A 
Should get out of this bed, but instead
                          G 
Go ahead, sing it to me

                      Bm 
Sing it to me, girl (all night)
                      A 
Sing it to me, girl (all right)

Sing it to me, girl

 G D               
Baby when you start you make my heart beat like an 808
 Bm A        
Like it ain't no thing, you pull my strings when you say my name
 G D Bm 
When your finger tips get to getting round where they belong
                      A  
Your touch is like a song

            G Bm 
Sing it to me 'til the morning sun comes up
                   A 
Love the sound of your love, turn it up, turn it up
         G Bm 
Hitting repeat, girl, I got you stuck in my head
                   A  
Should get out of this bed, but instead
                         G 
Go ahead, sing it to me

                     Bm 
Sing it to me, girl (all night)
                      A 
Sing it to me, girl (all right)

Sing it to me, girl

 G Bm 
Lost in the rhythm that you give
                        A  
And your love's like a song

Come on, come on

            G Bm 
Sing it to me 'til the morning sun comes up
                   A 
Love the sound of your love, turn it up, turn it up
         G Bm 
Hitting repeat, girl, I got you stuck in my head
                   A  
Should get out of this bed, but instead
                         G 
Go ahead, sing it to me

                      Bm 
Sing it to me, girl (all night)
                      A 
Sing it to me, girl (all right)

Sing it to me, girl

              G 
Sing it to me
          Bm A 
All night, all right

Sing Along Song chords – Khalil Fong V2

 Fmaj7 Am7 
I wrote this song it's not too long
 Bbmaj7 Bb/C 
Cause I've been thinking 'bout you
 Fmaj7 Am7 
I wrote this song maybe I'm wrong
 Bbmaj7 Bb/C 
To be caught up about you
 Bbmaj7 Am7 
Well I don't know what you think about me
 Gm7 Bb/C Fmaj7 
Maybe you think nothing at all
 Bbmaj7 Am7 Dm7 
But maybe you could just lie to me
      Gm7 Fmaj7/A Bbmaj7 Bb/C 
And we could be in love you see

             Fmaj7 Am7 
Oh it's a sing-along song that's not too long
               Bbmaj7 Am7 
It's when I think about you that I hear songs
             Bbmaj7 Am7 Dm7 
And you can sing along maybe if you want to
          Bbm7 Bb/C Fmaj7 
Cause baby I wrote this, I wrote this for you

 Fmaj7 Am7 
I wrote this song it's not too long
 Bbmaj7 Bb/C Bbm/C 
Cause I'm the one who loves you
 Fmaj7 Am7 
I wrote this song this can't be wrong
 Bbmaj7 Bb/C 
I don't wanna smile without you
 Bbmaj7 Am7 
Well I just want to make you happy
 Gm7 Bb/C Fmaj7 
But maybe you want nothing at all
 Bbmaj7 Am7 Dm7 
And how i wish that you're meant to be
      Gm7 Fmaj7/A Bbmaj7 Bb/C 
Forever and a day with me

             Fmaj7 Am7 
Oh it's a sing-along song that's not too long
               Bbmaj7 Am7 
It's when I think about you that I hear songs
             Bbmaj7 Am7 Dm7 
And you can sing along maybe if you want to
          Bbm7 Bb/C Am7 
Cause baby I wrote this, I wrote this for you

    Am7 Dm7 
In every way you mean more to me than you'll ever know
        Cm7 Eb/F Bbmaj7 
Girl I do my best to show these words are true
     Gb/Ab Dbmaj7 
And if you'd like to make a song and be a perfect harmony with me
    Gm7 
I'd find the greatest word to sing
 Bb/C 
So we could write our own romance

             Fmaj7 Am7 
Oh it's a sing-along song that's not too long
               Bbmaj7 Am7 
It's when I think about you that I hear songs
             Bbmaj7 Am7 Dm7 
And you can sing along maybe if you want to
          Bbm7 Bb/C Fmaj7 
Cause baby I wrote this, I wrote this for you            (2x)

Anne You Will Sing Tabs by Promise Ring

 -----------------------------------------------------------------------------
                           ANNE YOU WILL SING - The Promise Ring
-----------------------------------------------------------------------------
Well this is my favorite song by TPR so I thought I'd try to tab it out. 

Tuning: Standard


Beginning:
e|---------------------------|
B|-4------------4------------|
G|-----4-------------4-------|
D|---------------------------|
A|---------------------------|
E|---------------------------|

Intro/Verse:
e|------------------------------------------------------------------------|
B|------------------------------------------------------------------------|
G|-9-99-99-99-99-99-8-89-911-119-99-99-8-88-88-88-88-888-88-88-88-88-88---|
D|-9-99-99-99-99-99-9-99-9-9-9-9-99-99-x-xx-xx-xx-xx-xxx-xx-xx-xx-xx-xx---|
A|-7-77-77-77-77-77-6-66-6-6-6-6-66-66-6-66-66-66-66-666-66-66-66-66-66---|
E|-------------------------------------4-44-44-44-44-445-55-55-55-55-55---|
 |                                                                        |
e|------------------------------------------------------------------------|
B|------------------------------------------------------------------------|
G|-9-99-99-99-99-998-88-88-88-88-8813-1313-1313-1313-1313-1311111111111111|
D|-9-99-99-99-99-999-99-99-99-99-99x--x-x--x-x--x-x--x-x--x-x-xx-xx-xx-xx-|
A|-7-77-77-77-77-776-66-66-66-66-6611-1111-1111-1111-1111-119-99-99-99-99-|
E|------------------------------------------------------------------------|

Bridge:           x1                 x3
e|------------------|------------------|
B|------------------|------------------|
G|-888-9999-99-9999-|-888-9999-99-9999-|
D|-xxx-777x-xx-xxxx-|-xxx-777x-xx-xxxx-|
A|-666-0007-77-7777-|-666-0007-77-7777-|
E|--------0-00-0000-|--------0-00-0000-|
 |                                     |
e|------------------|------------------|
B|------------------|------------------|
G|------------------|-444-222----------|
D|--------2-22-2222-|-444-2222-22-2222-|
A|--------2-22-2222-|-222-0002-22-2222-|
E|--------0-00-0000-|--------0-00-0000-|

Interlude:
G|---------------------------------------------------------|
D|---------------------------------------------------------|BASS
A|---0-4----0-4----0-4----0-4----0-7----0-7----0-7----0-7--|
E|-0------0------0------0------0------0------0------0------|
 |                                                         |
e|--------------------------------------------------7------|
B|-----------------------------------------------9---------|GTR I
G|---------------------------------9-----------------------|
D|---------------------------------------------------------|
A|-----7---------------------------7-----------------------|
E|-0-0-0-----------------------0-0-------------------------|
 |                                                         |
e|---------------------------------------------------------|
B|---------------------------------------------------------|GTR II
G|---------------------------------------------------------|
D|---------------------------------------------------------|
A|-----4---------------------------7----------------7/9-9--|
E|-0-0-0-----------------------0-0-0----------------0---0--|


G|---------------------------------------------------------|
D|---------------------------------------------------------|BASS
A|---0-4----0-4----0-4----0-4----0-7----0-7----0-7----0-7--|
E|-0------0------0------0------0------0------0------0------|
 |                                                         |
e|-------------------7-------------------------------------|
B|-----9--------------------9------------------------------|GTR I
G|------------6--------------------6------6/4---4/6--------|
D|---------------------------------------------------------|
A|---------------------------------------------------------|
E|---------------------------------------------------------|
 |                 

I Will Sing chords – Israel Houghton

 Key G

Verse
 D C G/B C2 Dsus 
  I will  sing   of Your great   love
    D G/B C2 Dsus 
I will stand   in won - der of
         D G/B 
What You've done in this life
 C2 A/Db D 
  With my song testify  
        B/Eb Em C2/F 
I will live and not die   to declare


Chorus 1
             Cmaj9 Dsus 
Lord You are good and I will sing
                   Cmaj9 Dsus 
Your mercy en-dures     it's everlast - ing
                 Cmaj9 Dsus 
Lord You are good       and I will sing
             Esus E Gbm7 E/Ab 
A song of wor - ship
    Am E7/B E7/D Cmaj9 Dsus 
Lord   You  are    wor    -       thy to receive
                 Cmaj9 
Dominion and pow - er
                Dsus 
Honor and maj - es - ty
                 Cmaj9 Dsus 
Lord You are good         and I will sing
                 G/B C Dsus G/B C Dsus D  
Of Your great love

Bridge 1
        G/B C  
I will sing of Your Mer-cy
        Dsus D 
I will sing of Your love
        G/B C  
I will sing of your ten-derness
     Dsus D 
And tell the wonders of
        G/B C  
I will sing of Your goodness
        Dsus D 
I will sing of Your grace
        G/B C  
I will sing of Your holiness
       Dsus D 
And melodies and praise

Bridge 2
        A/Db D 
I will sing of Your Mer-cy
        Esus E 
I will sing of Your love
        A/Db D 
I will sing of your ten-derness
     Esus E 
And tell the wonders of
        A/Db D 
I will sing of Your goodness
        Esus E 
I will sing of Your grace
        A/Db D 
I will sing of Your holiness
      Esus E 
And melodies and praise

Chorus 2
              A/D Esus 
Lord You are good and I will sing
                   Dmaj9 Esus 
Your mercy en-dures     it's everlast - ing
                 Dmaj9 Esus 
Lord You are good       and I will sing
            Gbsus         Gb Abm7 Gb/Bb 
A song of wor - ship
    Bm7 Gb7/Db Gb7/E Dmaj9 Esus 
Lord   You  are     wor    -     thy to receive
                 Dmaj9 
Dominion and pow - er
                 Esus 
Honor and maj - es - ty
                 Dmaj9 Esus 
Lord You are good         and I will sing                
            Gbsus         
A song of wor - ship
 Gb Abm7 Gb/Bb Bm Gb7/Db A/D    (back to chorus 2)
               Lord You  are    good 
                                
Ending                          
                  A 
Of Your great love

Sing For The Wind Tabs by Roo Panes

 -------------------------------------------------------------------------------
            SING FOR THE WIND - Roo Panes
-------------------------------------------------------------------------------
Play pattern one until verse pattern starts.  Use verse pattern during OHs
Tuning:Standard
Pattern 1
e|------3----------------3-----------------------------------------------------|
B|----0----0--(0)----0----0--(0)-----------------------------------------------|
G|--0-------0-------0-------0--------------------------------------------------|
D|-----------------------------------------------------------------------------|
A|-----------------------------------------------------------------------------|
E|-3---------------3-----------------------------------------------------------|
     Verse Pattern
e|---------3----------3----------3-----------3--------------------3--------------------|
B|------1-----------0----------1-----------0--0--(0)-----------0--0--(0)---------------|
G|---0------------0----------0-----------0-----0-------------0------0------------------|
D|---------------2---------------------------------------------------------------------|
A|-3------------------------3----------------------------------------------------------|
E|--------------------------------------3-------------------3--------------------------|
Chorus
You told me, sing for the wind my love   Fear not tomorrow
e|------------------3---------------------------3-------------------3-------------------3--------|
B|----------------0--0--0---------------------1---1--1-------------0--0--0-------------1---1--1--|
G|--------------0-----0---------------------0-------0-------------0-----0------------0------0----|
D|------------2-------------------------------------------------2--------------------------------|
A|-----------------------------------------3----------------------------------------3------------|
E|-----------------------------------------------------------------------------------------------|
Cos love's the journey of a lifetime,
and where you finish isn't where you start

So tomorrow doesn't worry me,
And though the path be untravelled at least I'm free,
To be great not just to be,
That's what your wise old words taught me.

You told me "sing for the wind my love,
fear not for tomorrow,
Cos love's the journey of a lifetime,
and where you finish isn't where you start"


************************************
| /   slide up
| \   slide down
| h   hammer-on
| p   pull-off
| ~   vibrato
| +   harmonic
| x   Mute note
| b   Bend
| pb  Pre-bend
| br  Bend release
| pbr Pre-bend release
| brb Bend release bend

************************************

We Will Sing Sing Sing chords – Praise And Worship

 E 
We will sing, sing, sing

And make music with the heavens
            C#m 
We will sing, sing, sing

Grateful that You hear us
               B 
When we shout your praise
         A E                ( E A Ab )
Lift high the name of Jesus

 E 
What's not to love about You?

Heaven and earth adore You
 C#m 
Kings and kingdoms bow down
                              B 
Son of God, You are the One
                 A 
You are the One we're living for


 E 
You are the love that frees us

You are the light that leads us
 C#m 
Like a fire burning
                              B 
Son of God, You are the One
                 A 
You are the one we're living for

Sing Sing Sing chords – Praise And Worship

 E 
We will sing, sing, sing
And make music with the heavens
     C#m7 
We will sing, sing, sing
Grateful that you hear us
 B 
When we shout your praise
 A E 
Lift high the name of Jesus

 E 
What's not to love about you
Heaven and earth adore you
 C#m7 
Kings and kingdoms bow down
Son of God
 B 
You are the One
 A 
You are the One
                E 
We're living for

 E 
You are the love that frees us
You are the light that leads us
 C#m7 
Like a fire burning
Son of God
 B 
You are the One
 A 
You are the One
                 E 
We're living for


*****
Progression is the same throughout the song.

I have the bass tab figured out, but I don't have the patience to type it right now.

For a cooler sound on the acoustic, plays this chords

 E      079900
 C#m7   9X9900
 B      799800
 A      577600

The bass tab is played off of these chords
 E  second string and third string ( E  &  B )
 C#  1st string and third string ( C#  &  B )
B 1st string and third string  (B & B in octaves)
A 1st string and third string  (A & A in octaves)

I Will Sing chords – Praise And Worship V2

 Verse 1:
 F Bb 
When I wander in my doubt
 Dm Bb C 
I'm held within your mystery
 F Bb 
You reveal a love so faithful
 Dm Bb C 
Hope unending I believe

Chorus:
 F 
You're the risen Son of God
 Bb 
You're the light that breaks the dark
 Dm 
Your love has rescued me
 Bb C 
Forever I will sing
 F 
You're the Savior of my soul
 Bb 
You're the name above it all
 Dm 
Your grace alive in me
 Bb C 
Forever I will sing

Turn: [ Bb  -  F  -  C ]

Verse 2:
Oh the wonder of the cross
The Father's heart revealed to me
Unrelenting, never changing
All consuming, I am free

Bridge:
 Bb F C 
I am not ashamed of the cross that made a way
 Bb F C 
The only name that saves is Jesus

Reason To Sing chords – All Sons And Daughters V2

 D , G D , G 

V1:
 D G   
When the pieces seem to shattered
      Bm A G 
To gather off the floor
      D G 
And all that seems to matter
                  Bm A G   
Is that I don’t feel you anymore
             Bm A G A 
No I don’t feel you anymore

Chorus:
            D G 
I need a reason to sing
            D G 
I need a reason to sing
            Bm A G 
I need to know that You’re still holding
     Bm A G A 
The whole world in Your hands
                         D G ,  D G 
I need a reason to sing

V2:
             D G 
When I’m overcome by fear
               Bm A G 
And I hate everything I know
           D G 
If this waiting lasts forever
      Bm A G 
I’m afraid I might let go
      Bm A G A 
I’m afraid I might let go

Oh Oh Oh

Chorus:
             D G 
I need a reason to sing
             D G 
I need a reason to sing
            Bm A G 
I need to know that You’re still holding
       Bm A G A 
The whole world in Your hands

I need a reason to sing

 B :

 Bm A G 
Oh Yeah Yeah
 Bm 
Will there be a victory
 D G 
Will You sing it over me now

Oh

 Bm 
Your peace is the melody
 D G 
You sing it over me now

Oh Lord

 Bm 
Will there be a victory
 D G 
Will You sing it over me now

Oh Lord

 Bm 
Your peace is the melody
 D G A 
You sing it over me now

Chorus:
           D G 
I need a reason to sing
           D G 
I need a reason to sing
             Bm A G 
I need to know that You’re still holding
      Bm A G A 
The whole world in Your hands
                         D 
That is a reason to sing

I Will Sing chords – Praise And Worship

 Verse 1:
 F Bb 
When I wander in my doubt
 Dm Bb C 
I'm held within your mystery
 F Bb 
You reveal a love so faithful
 Dm Bb C 
Hope unending I believe

Chorus:
 F 
You're the risen Son of God
 Bb 
You're the light that breaks the dark
 Dm 
Your love has rescued me
 Bb C 
Forever I will sing
 F 
You're the Savior of my soul
 Bb 
You're the name above it all
 Dm 
Your grace alive in me
 Bb C 
Forever I will sing

Turn: [ Bb  -  F  -  C ]

Verse 2:
Oh the wonder of the cross
The Father's heart revealed to me
Unrelenting, never changing
All consuming, I am free

Bridge:
 Bb F C 
I am not ashamed of the cross that made a way
 Bb F C 
The only name that saves is Jesus

Sing Tot The Lord chords – Praise And Worship

 INTRO:  Em Bm C 

VERSE 1

 G D 
Righteous ruler of the heavens
 Am7 C 
Holy, Holy our God
 G D 
Sovereign Lord of all cre - ation
 Am7 C 
Holy, Holy our God

PRE-CHORUS:
      C G 
Every tribe and tongue
          Em D 
Lift your voice as one
       C Em D 
He is greatly to be praised

CHORUS
             G C Em D 
Sing to the Lord, oh my soul
         Em C/E Em D 
Let the heavens shout for joy
 Am7 C Em D 
Great is our God
 Am7 C Em D 
Great is our God

Verse 2
 G D 
Nations come and bow be - fore Him
 Am7 C 
Holy, Holy our God
 G D 
Angels sing now and for - ever
 Am7 C 
Holy, Holy our God

[Return to PRE-CHORUS]

BRIDGE:
    Gsus4 G G/B Cadd9 Em D G/B C 
The hea - vens shall de - clare, the glo - ry of our great God (3X)

VERSE 3:
 G D 
Jesus, come let us adore Him
 Am7 C 
Holy, Holy our God.

[Return to CHORUS]

My Heart Sing Praises chords – Praise And Worship

 Intro: Bb  –
Verse1
 Bb 
My heart sings praises,
                Dm 
Each time I say Your name,
                 Eb 
This love is deeper,
                 Eb/F F  
Than simples words can say,

You go before me,
To make a perfect way,
My one desire,
Is to give You perfect praise
Chorus
 Bb Eb D 
In my heart, You are the power
          Gm Fm       
In my night, never failing light
         Bb Eb 
With every breath
                    D Gm  (F#m-Fm)   
That take I’ll declare the things You’ve done
Repeat Verse1
 Bb Eb D 
In My heart, mighty overcomer
         Gm F#m Fm 
In my soul, the reason why
 Bb Eb D Gm F#m Fm    
In my life, You are the fire that flows beyond  
Repeat from the top,

Chorus

Sing A Little Song chords – Praise And Worship

 SING A LITTLE SONG

Intro:  D  –  Bm  –  Em  –  A7  –  D  –  A7 D D7 G 
SING A LITTLE SONG to Jesus, you’ll feel right
            Em A  –  A7 
SING A LITTLE SONG  to Jesus,  you’ll feel right
                                 D D7 
Fewah, Fewah, hatanaw
                                 G Gm 
Fewah, Fewah, kewaho
             D Bm Em A7 D 
SING A LITTLE SONG to Jesus, you’ll feel right


SAY A LITTLE PRAYER

MOVE A LITTLE BIT FOR JESUS


SING A LITTLE SONG

Intro:  D  –  Bm  –  Em  –  A7  –  D  –  A7 D D7 G 
SING A LITTLE SONG to Jesus, you’ll feel right
            Em A  –  A7 
SING A LITTLE SONG  to Jesus,  you’ll feel right
                                 D D7 
Fewah, Fewah, hatanaw
                                 G Gm 
Fewah, Fewah, kewaho
             D Bm Em A7 D 
SING A LITTLE SONG to Jesus, you’ll feel right


SAY A LITTLE PRAYER

MOVE A LITTLE BIT FOR JESUS