Tag: sleeping

Sleeping In My T-Shirt chords – Zak Waters

 --------------------------------------------
    Sleeping In My T-Shirt - Zak Waters
--------------------------------------------

: Eric H. 
Email: dukedevilseh@aim.com

Tuning: Standard

Artist: Zak Waters
 Now // Later EP
Year: 2014

 ever! Feel free to email me with questions,
comments or edits.

The chords are barred to give the song a lighter feel.
     A F#m Bm E 
e|--xx--|   e|--9---|   e|--2--|   e|--7--|
B|--14--|   B|--10--|   B|--3--|   B|--9--|
G|--14--|   G|--11--|   G|--4--|   G|--9--|
D|--14--|   D|--11--|   D|--4--|   D|--9--|
A|--12--|   A|--9---|   A|--2--|   A|--7--|
E|--xx--|   E|--xx--|   E|--x--|   E|--x--|

     D Dm Dbm 
e|--5--|   e|--5--|   e|--4--|
B|--7--|   B|--6--|   B|--5--|
G|--7--|   G|--7--|   G|--6--|
D|--7--|   D|--7--|   D|--6--|
A|--5--|   A|--5--|   A|--4--|
E|--x--|   E|--x--|   E|--x--|

Verse:

           A 
I see you lying there
                F#m 
Swimming in my pillows
                   Bm 
I'm walking on my tiptoes
                       E 
Sun coming through my window
                 A 
You were just a booty call
                 F#m 
Now you look so beautiful
              Bm 
Morning came I suppose
                        E 
Sometimes its just the way it goes

 D 
Your silhouette framed by the bed post
 E 
One look and i'm done for
 Bm E 
Standing starry I am speechless


Chorus:

                           D 
I love you sleeping in my t-shirt
                             Dbm 
Wearing my heart up on your sleeve girl
                    Bm 
Try my best not to wake you
                        E 
You look so good in my bedroom

                  D 
6 o'clock in the morning
                        Dbm 
Fell in love without a warning
                   Bm 
I wanna make this forever
                   E 
So everyday i can see ya
                A F#m 
Sleeping in my t-shirt


Verse:

                 A 
Forgot about my hangover
                 F#m 
Standing in the doorway
                    Bm 
No i can't seem to stop myself
                   E 
From looking over your way
                 A 
You were not supposed to stay
             F#m 
Happy under your spell
                                  Bm 
And now you're wrapped under my blankets
                  E 
Sleeping like an angel

 D 
Your silhouette framed by the bed post
 E 
One look and i'm done for
 Bm E 
Standing starry I am speechless


Chorus:

                           D 
I love you sleeping in my t-shirt
                             Dbm 
Wearing my heart up on your sleeve girl
                    Bm 
Try my best not to wake you
                        E 
You look so good in my bedroom

                  D 
6 o'clock in the morning
                        Dbm 
Fell in love without a warning
                   Bm 
I wanna make this forever
                   E 
So everyday i can see ya
                A F#m 
Sleeping in my t-shirt


Bridge:

 Dbm F#m 
I, I wanna be,
            Bm E 
I wanna be waking up, waking up next to you

 Dbm F#m 
Girl, you better be
               Bm D Dm A 
You better be waking up, waking up in my t-shirt
 F#m Bm E 
Eh, yeah


Chorus:
       

If Im James Dean Youre Audrey Hepburn chords – Sleeping With Sirens Vsion 5

 This is not the acoustic version of the song. 
The song doesn't use a capo but if your voice is deeper than Kellin's, then it's capo 1
For strumming pattern: https://www.youtube.com/watch?v=FZlcV1m-zis. He plays the chords a bit differently but
 the strumming pattern is similar. Change the pattern for the second verse to match the first, if you want.
It might not be 100% accurate but it still sounds similar.

Standard Tuning

Intro:
 Gm Gm 
Stay for tonight
If you want to
I can show you
          E 
What my dreams are made of,
         F# 
As I'm dreaming of your face
            Gm 
I've been away for a long time
Such a long time
                      E 
And I miss you there
                                     F# 
I can't imagine being anywhere else
I can't imagine being anywhere else but here

 Gm Gm 
How the hell did you ever pick me?
                                E 
Honestly, I could sing you a song
                                          F# 
But I don't think words can express your beauty
                  Gm 
It's singing to me

How the hell did we end up like this?
                            E 
You bring out the beast in me
                                   F# 
I fell in love from the moment we kissed
                             Gm 
Since then we've been history

 Gm E E F# 
They say that love is forever
                            Gm 
Your forever is all that I need
        B E 
Please stay as long as you need
                                     F# 
Can't promise that things won't be broken
                               Gm 
But I swear that I will never leave
        B E 
Please stay forever with me

 Gm Gm E 
It goes to show, I hope that you know that you are
What my dreams are made of
 Gm 
Can't fall asleep, can't fall asleep
                                           E 
I lay in my bed awake, in my bed awake at night
As I dream of you
 Gm 
I'll fall in love, you'll fall in love
                                         E 
It could mean everything, everything to me
I can't imagine being anywhere else

 E F# 
They say that love is forever
                            Gm 
Your forever is all that I need
        B E 
Please stay as long as you need
                                     F# 
Can't promise that things won't be broken
                               Gm 
But I swear that I will never leave
        B E 
Please stay forever with me

 E                  
The way that we are
        F# 
Is the reason I stay
    Gm 
As long as you're here with me
   B 
I know I'll be OK

 E                  
The way that we are
        F# 
Is the reason I stay
    Gm 
As long as you're here with me
   B 
I know I'll be OK

 E F# 
They say that love is forever
                            Gm 
Your forever is all that I need
        B E 
Please stay as long as you need
                                     F# 
Can't promise that things won't be broken
                               Gm 
But I swear that I will never leave
        B E 
Please stay forever with me

 E F# 
They say that love is forever
                            Gm 
Your forever is all that I need
        B E 
Please stay as long as you nee

Kick Me Tabs by Sleeping With Sirens

 -------------------------------------------------------------------------------
                             Kick Me - Sleeping With Sirens
-------------------------------------------------------------------------------
: Edwin Rodriguez ( https://www.facebook.com/SlipknotSoadlmL ) if you need help just add me on Fb

Tuning: Drop C

Guitar 1 and 2. 

Intro:

(Only guitar 1)

D|---------------------------------------------------------------------------------------------------------|
A|--14--14--14--14--15--15--15--15--15--12--12--12--12--14--14--14--14--9--9--9--9--10--10--10--10--10--7~~|
F|---------------------------------------------------------------------------------------------------------|
C|---------------------------------------------------------------------------------------------------------|
G|---------------------------------------------------------------------------------------------------------|
C|---------------------------------------------------------------------------------------------------------|





Verse 1:

(Guiar 1 and 2)

D|---------------------------------------------------------------------------|
A|----6--4--6-----6--4--6-----6--4--6----------------------------------------|
F|----4--4--4-----4--4--4-----4--4--4----------------------------------------|
C|---------------------------------------0--0--0--0--2--2--2--2--2--2--2-----|x2
G|---------------------------------------0--0--0--0--2--2--2--2--2--2--2-----|x2
C|---------------------------------------0--0--0--0--2--2--2--2--2--2--2-----|x2

D|----9-------------10-----------9-------------------------------------------|
A|----10---(12x)----10---(4x)----10---(8x)-----------------------------------|
F|----11------------11-----------11------------------------------------------|
C|---------------------------------------------------------------------------|
G|---------------------------------------------------------------------------|
C|---------------------------------------------------------------------------|





Chorus:

Guitar 1:

D|---------------------------------------------------------------------------| __
A|---------------------------------------------------------------------------|   |
F|---------------------------------------------------------------------------|   |
C|-4-4-4-4-4-4-4-0-0-0-0-0-0-0-0-7-7-7-7-7-7-7-7-2-2-2-2-2-2-2-2-------------|   |
G|-4-4-4-4-4-4-4-0-0-0-0-0-0-0-0-7-7-7-7-7-7-7-7-2-2-2-2-2-2-2-2-------------|   |
C|-4-4-4-4-4-4-4-0-0-0-0-0-0-0-0-7-7-7-7-7-7-7-7-2-2-2-2-2-2-2-2-------------|   | 
                                                                                 |> (x2)
D|---------------------------------------------------------------------------|   |
A|---------------------------------------------------------------------------|   |
F|---------------------------------------------------------------------------|   |
C|-4-4-4-4-4-4-4-4-0-0-0-0-0-0-0-0-----7----7-----3---3---3-3-3-3------------|   |
G|-4-4-4-4-4-4-4-4-0-0-0-0-0-0-0-0-----7----7-----4---4---4-4-4-4------------|   | 
C|-4-4-4-4-4-4-4-4-0-0-0-0-0-0-0-0-----7----7-----3---3---3-3-3-3------------| __

D|---------------------------------------------------------------------------|
A|---------------------------------------------------------------------------|
F|---------------------------------------------------------------------------|
C|-4---------------4-----------------4---------------------------------------|x2
G|--------------------------------------------------0--4---------------------|x2
C|---4-4---4-4-4-----4-4---4-4-4-4----4-4---4-4-4---------3------------------|x2

Guitar 2:

                            |----11's------|
D|---------------------------------------------------------------------------| __  
A|---------------------------------------------------------------------------|   |
F|-14-14-14-14-14-14-14-14--111111111111111--18-18-18-18-18-18-18-18---------|   |
C|-X--X--X--X--X--X--X--X---X-X-X-X-X-X-X-X--X--X--X--X--X--X--X--

While You Were Sleeping chords – Kesha

 While You Were Sleeping

Intro

 A Bm D A 


Verse 1

 A Bm 
So far away.
          D A 
From the place where I feel safe.
               Bm 
And I cant recall,
     D A 
The beauty in your face.
 F#m D A E 
The distance, between us, stores its dirty seeds.
 F#m D A E 
Spreading inside of me, with every breath I breathe.

Chorus:

                      D  
While you were sleepin'
 A D A 
I was wondering with the lonely people.
                D 
While you were sleepin'
 A E A 
Trying to fill the void you've left.
 D E F#m    
Life is short and the nights are long.
 A D E F#m 
And tonight I moved on.
 D E 
While you were sleepin'

Verse 2
 A Bm 
A stranger for the night,
      D A 
So I don't wake up alone (all alone)
 A Bm 
To fake what we had, (to fake)
        D A 
But it doesn't feel like home.
 F#m D 
The distance between us,
 A E 
Grows its dirty seeds.
 F#m D 
Consuming my insides,
      A E 
With every breath I breathe.


                D  
While you were sleepin'
   A D A 
I was wondering with the lonely people.
                D 
While you were sleepin'
 A E A 
Trying to fill the void you've left.
 F#m D E    
Life is short and the nights are long.
 F#m A D E F#m 
And tonight I moved on.
 D E         
While you were sleepin'


 Bm A 
Don't look for me, don't wait for me.
   D E 
I found my path. (while you were sleeping)
 Bm A 
Over sticks and stones, over broken bones.
   D E 
I won't look back. (while you were sleeping)
 Bm 
There's a place for you,
 A 
Somewhere in my heart.
 E D 
But that's the past,


                D 
While you were sleepin'
    A D A 
I was wondering with the lonely people.
                D 
While you were sleepin'
 A E A 
Trying to fill the void you've left.
 D A E    
Life is short and the nights are long.
 D E F#m E F#m 
And tonight I moved on.
 F#m E         
While you were sleepin'

Sleeping With A Friend Tabs by Neon Trees

 Drop D Tuning

Intro/Chorus
e-----------------------------------------|
b-12----10--------------------------------|
g----11----11----11----11--12-12-11-11----|
d-------------12----12-----------------12-|
a-----------------------------------------|
d-----------------------------------------|

Synth
e-----------------------------------------------|
b-----------------------------------------------|
g------9~--11~--12~-----------9~----------------|
d-12~--------------------12~------11~----12~----|
a-----------------------------------------------|
d-----------------------------------------------|

Rhythm (It's the bass or something.  Can play in between guitar parts.  Bottom d0's for 
D chord are optional)
e---------------------------------------------------------------------|
b---------------------------------------------------------------------|
g----------7-7-7-7---------------------------7-7-7-7------------------|
d-5-5-5-5--7-7-7-7--7-7-7-7-7-7-7-7-5-5-5-5--7-7-7-7--7-7-7-7-9-9-9-9-|
a-5-5-5-5--5-5-5-5--7-7-7-7-7-7-7-7-5-5-5-5--5-5-5-5--7-7-7-7-9-9-9-9-|
d-5-5-5-5-(0-0-0-0)-7-7-7-7-7-7-7-7-5-5-5-5-(0-0-0-0)-7-7-7-7-9-9-9-9-|

Verse
Rhythm
e-----------------------------------------------------------------|
b-----------------------------------------------------------------|
g-----------------------------------------------------------------|
d-----------------------------------------------------------------|
a-----------------------------------------------------------------|
d-5-5-5-5-5-5-5-5-5-5-5-5-0-0-0-0-7-7-7-7-7-7-7-7-7-7-7-7-9-9-7-7-|

Guitar
e-----------------------------------------------------------------------------------|
b-------------------------------7---77------77---------77--------7---7--------------|
g-77-99-77---77-99-77---7--9-7----7----99------99-77------99-77----9---9---77-99-77-|
d-----------------------------------------------------------------------------------|
a-----------------------------------------------------------------------------------|
d-----------------------------------------------------------------------------------|

e-------------------------------------------------------------------------|
b-------------------------------7---7-------7-----77---------7------------|
g-77-99-77---77-99-77---7--9-7----7---9---7---9------99-77------9-7--9-77-|
d-------------------------------------------------------------------------|
a-------------------------------------------------------------------------|
d-------------------------------------------------------------------------|

Chorus

Verse 2
Rhythm Same
Guitar Same

Synth (Plays some stuff when guitar comes in but pretty hard to hear it.  I'll try and 
tab it later on.)
e-------------------------------|
b-----------7~------------7~----|
g---7---7-9---------7---7-------|
d-9---9-----------9---9---------|
a-------------------------------|
e-------------------------------|

Chorus

Bridge
Rhythm
e---------------------------------------------------------------|
b---------------------------------------------------------------|
g---------------------------------------------------------------|
d-2-2-2-2-2-2-2-2/5-5-5-5-5-5-5-5-7-7-7-7-7-7-7-4-4-4-4-4-4-4-4-|
a-2-2-2-2-2-2-2-2/5-5-5-5-5-5-5-5-7-7-7-7-7-7-7-4-4-4-4-4-4-4-4-|
d-2-2-2-2-2-2-2-2/5-5-5-5-5-5-5-5-7-7-7-7-7-7-7-4-4-4-4-4-4-4-4-|

e--------------------------------------------------|
b--------------------------------------------------|
g--------------------------------------------------|
d-2-2-2-2-2-2-2-2/5-5-5-5-5-5-5-5-7-7-7-7-7-7-7//--|
a-2-2-2-2-2-2-2-2/5-5-5-5-5-5-5-5-7-7-7-7-7-7-7//--|
d-2-2-2-2-2-2-2-2/5-5-5-5-5-5-5-5-7-7-7-7-7-7-7//--|

Synth Part (Very faint part at the "All my friends..." part.)
e---------------------------------|
b-----7-------7-------7---88-77---|
g---7---7---7---7---7---7-------7-| repeat
d-9-------9-------9---------------|
a---------------------------------|
d---------------

Sleeping With Knives chords – Useless Id

 Useless ID
Sleeping With Knives
Symptoms
2012 Fat Wreck Chords
Submitted by: jeremyunderground41

Key: D

Tuning: Standard EADGBe

Chords used:
 Bm  -   x24432
 A  -    x02220
 G  -    320033
 Em  -   022000
 F#m  -  244222
 A/C#  - x476xx


Intro:  Bm -- A - G - F#m -- G -- x2


Verse 1:
          Bm 
When the night is a guilt
         A G 
and you lost the fume
     F#m 
you lock yourself up
      G 
in a panic room
      Bm 
Your life is a collision
 A G 
course and it drives you
 F#m G Em Bm 
mad     And Outside your
             A G 
window I've always been
       F#m 
I'm a vampire waiting
    G 
to be lead in
        Bm 
when I know there's a 
        A G F#m G 
silver bullet set aside


Chorus 1:
 Em F#m G 
  You relied on someone
 A Bm 
  I could never really
 G Em F#m 
  be  He took you for
 G A 
granted You sucked
     Bm G A 
the life out of me


Post Chorus:  Bm -- A - G - F#m -- G -- x2


Verse 2:
        Bm 
Do you wander the streets
     A G 
and feel like a whore? 
        F#m 
Do you even know
     G 
yourself anymore? 
    Bm 
It seems like you're 
       A G F#m G Em 
never ready to subside
  Bm 
Staying where you suffer
     A G 
may keep you safe
        F#m 
with a broken heart
       G 
in an empty cage
          Bm 
and your lip to the
           A 
bottle to ease the
 G F#m G A 
pain for you tonight


(Repeat Chorus 1)


Bridge:
 Bm A G 
    When you're sleeping
          Em 
are you sleeping with knives? 
 Bm A G 
    When you're sleeping are 
      Em F#m 
you sleeping with knives? 


Chorus 2:
 Em F#m G 
  How about your ex-lover?
 A Bm G 
  You turned him into a ghost
 Em F#m G 
  You could try one more
     A Bm 
time and see you're not
 G A Bm A G 
worth his love or mine
 F#m G 
   Are you sleeping
             Bm A G 
with knives?
 F#m G 
   Are you sleeping
             Bm A G 
with knives?
 F#m G 
   Are you sleeping
             Bm A G F#m A/C# Bm (hold)
with knives?

Heirloom chords – Sleeping At Last

 Standard Tuning

Capo 2: in C (D without capo)

Intro: Hold  C 

Verse 1 (G/ B ,  Am ,  F ,  C )
You try your hardest to leave the past alone.
This crooked posture is all you’ve ever known.
It is the consequence of living in between
The weight of family and the pull of gravity.

Chorus: ( Am ,  G ,  F )
You are so much more than your fathers son.
You are so much more than what Ive become.

Hold C before next Verse
 
Verse 2 (G/ B ,  Am ,  F ,  C )
Long before you were born there was light
Hidden deep in these young, unfamiliar eyes.
A million choices, though little on their own,
Become the heirloom of the heaviness you’ve known.

Chorus: ( Am ,  G ,  F )
You are so much more than your fathers son.
You are so much more than what Ive become,
What Ive become,
What Ive become.

Bridge: (Hold Am before)

 Am G/B 
You pressed rewind
              C                   
For the thousandth time
                        F 
When the tapes wore through.
  Am G/B 
So you memorized
                      C 
Those unscripted lines,
                           F 
Desperate for some kind of clue:
 Am G/B 
When the scale tipped,
                 C 
When you inherited
                                 F 
A fight that you were born to lose.
 Am G/B 
Its not your fault,
                      C 
No, its not your fault,
                             F 
I put this heavy heart in you.
 C/E F 
I put this heavy heart in you.

Hold  C 

Verse 3: (G/ B ,  Am ,  F ,  C )
You remind me of who I could have been,
Had I been stronger and braver way back then.
A million choices, though little on their own,
Became the heirloom of the heaviness we’ve known.


End Chorus: ( Am ,  G ,  F )
You are so much more than your fathers son.
You are so much more than the wars youve won.
You are so much more than your fathers son.
You are so much more than what Ive become.
(Repeat the run)
What I've become(2x)


Fade out with C

Roger Rabbit chords – Sleeping With Sirens V4

 Hello people. This is the version I like the best. You don't need a capo or 
anything to play.  The strumming pattern is up for you to decide, it's not my 
thing so... yeah, I hope you like it! Enjoy

 Em 
Is there a right way for how this goes?
 C D 
You got your friends, and you got your foes.
 Em 
They want a piece of something hot,
 C D 
forget you name like they forgot.
 Em C D Em 
Oh, ain't that something?

 Em 
Some wanna see you crash and burn,
 C D 
and criticize your every word.
 Em 
I'm tring to keep you from goin' insane,
 C D 
ain't that the way of this whole damn thing?
 Em C D Am 
Oh, trying to be something, more.

 C G 
Nobody's gonna love you if,
 D Em Am 
you can't display, a way to capture this.
 C G 
Nobody's gonna hold your hand,
 D               
and guide you through,
               Em D                  
no it's up for you to understand.
 C G 
Nobody's gonna feel your pain,
 D       
when all is done,
 Em D 
and it's time for you to walk away.
 C 
So when you have today,
 D Em 
you should say all that you have to say.

(Play the intro tab if you know it)

 Em 
Is there a right way for being strong?
 C D 
Feels like i'm doing things all wrong.
 Em 
Still i'm here just holdin' on,
 G D 
confess my heart and forgive my wrongs.
 Em                  ( C )            Am 
Just trying to show you something, more.

 C G 
Nobody's gonna love you if,
 D Em        
you can't display, a way to capture this.
 C G 
Nobody's gonna hold your hand,
 D               
and guide you through,
               Em D                  
no, it's up for you to understand.
 C G 
Nobody's gonna feel your pain,
 D       
when all is done,
 Em D 
and it's time for you to walk away.
 C 
So when you have today,
 D Em 
you should say all that you have to say.

 C D 
Don't point the blame when you can't find nothing.
                                                          Em 
Look to yourself, and you might find something.

It's time that we sorted out,
 D 
all of the things, we complain about.

 C D 
So listen close to the sound of your soul,
                                               Em 
take back a life we lived once before.
 Am 
If it ain't you, then who?
                                                     C 
If it ain't you, then who is gonna love you?

 C G 
Nobody's gonna love you if,
 D Em Am 
you can't display, a way to capture this.
 C G 
Nobody's gonna hold your hand,
 D               
and guide you through,
               Em D                  
no, it's up for you to understand.
 C G 
Nobody's gonna feel your pain,
 D       
when all is done,
 Em D 
and it's time for you to walk away.
 C 
so when you have today,
 D Em 
you should say all 

Sleeping By Myself solo Tabs by Pearl Jam

 This is the solo part of Sleeping by Myself by Pearl Jam

Standard tuning

e|-----------------------------------------------------|
B|--12----------12-----------13-----------/15--13-12---|
G|-----12----12----12---12------12----12------------14-|
D|--------12----------12-----------14------------------|
A|-----------------------------------------------------|
E|-----------------------------------------------------|

e|------------------------------------------------------------------||
B|--12-----------/13--12--------/13--12---------------13--------15--||
G|-----12----12-----------14-12----------14-12----------------------||
D|--------12-------------------------------------10/14-----12/16----||
A|------------------------------------------------------------------||
E|------------------------------------------------------------------||

Neptune chords – Sleeping At Last

 F 
Pitch black, pale blue
 G Am 
There was a stained glass, variation of the truth
     Em F 
And I felt empty handed
            F           
You let me set sail, with cheap wood
 G Am   
So I patched up every leak that I could
           Em F 
Till the blame grew too heavy

 Am 
Stage by stage, I tear apart
 F 
If brokenness is a form of art
 F 
I must be a poster child prodigy
 Am 
Thread by thread I come apart
 F 
If brokenness is a work of art
 F 
Surely this must be my masterpiece

     F 
I'm only honest when it rains
       G 
If I time it right, the thunder breaks
         Am             
When I open my mouth
 Em F 
I wanna tell you but I don't know how
      F 
I'm only honest when it rains
     G 
An open book, with a torn out page
         Am 
And my inks run out
 Em F 
I wanna love you but I don't know how

    F 
I don't know how
       C Em 
No I don't know how
    F 
I don't know how
                          C Em 
I wanna love you but I don't know how
    F 
I don't know how
                          C Em 
I wanna love you but I don't know how
                          F 
I wanna love you but I don't know how
               G 
I wanna love you

(same chords as befor:  F , G , Am , Em , F )
Pitch black, pale blue
These wild oceans shake whats left of me
And loose just to hear me cry mercy
The strong wind at my back
So I'll lift up
The only sail that I have
This tired white thread

 F 
(white thread) [x4]

(same chords as befor:  F , G , Am , Em , F )
I'm only honest when it rains
If I time it right, the thunder breaks
When I open my mouth
I wanna tell you but I don't know how
I'm only honest when it rains
An open book, with a torn out page
And my inks run out
I wanna love you but I don't know how
Know how

I'm only honest when it rains
If I time it right, the thunder breaks
When I open my mouth
I wanna tell you but I don't know how
Know how
I'm only honest when it rains
An open book, with a torn out page
And my inks run out
I wanna love you but I don't know how

(same chords as befor:  F , C , Em )
I don't know how
I don't know how
I don't know how
I wanna love you but I don't know how
I don't know how
I wanna love you but I don't know how
                        F 
I wanna love you but I don't know how
               G 
I wanna love you

Sleeping With The Television On chords – Billy Joel

 Gmaj7 A Bm/D A Gmaj7 A Bm/D A Gmaj7 A Bm/D A Gmaj7 A Bm/D A/C# Bm G D/F# G 
I've been watching you waltz all night Diane
          D Bm A D 
Nobody's found a way behind your defenses
             A/C# Bm G D/F# G 
They never notice the zap gun in your hand
               D/F# Em D/F#     
Until you're pointing it and stunning their senses

 Bm A G D/F# Em G 
All night long, all night long
                  D/F# Bm A Bm 
You'll shoot 'em down because you're waiting for somebody 
          A G 
good to come on
 Bm A G D/F# Em 
All night long, all night long
                  G A Gmaj7  
But you'll be sleeping with the television on

 A Bm/D A Gmaj7 A Bm/D A Gmaj7 A/C# Bm G D/F# G 
You say you're looking for someone solid here
                 D Bm A D 
You can't be bothered with those `just for the night' boys
             A/C# Bm G D/F# G 
Tonight unless you take some kind of chances dear
               D/F# Em D/F#     
Tomorrow morning you'll wake up with the white noise

 Bm A G D/F# Em G 
All night long, all night long
                  D/F# Bm A Bm 
You're only standing there 'cause somebody once did 

          A G 
somebody wrong
 Bm A G D/F# Em 
All night long, all night long
                G A Bm 
But you'll be sleeping with the television on

                       D/G G D/G G 
Your eyes are saying talk to me, talk to me
                              A/B Bm A/B Bm D/G G 
But your attitude is "don't waste my time"
                       D/G G D/G G 
Your eyes are saying talk to me, talk to me
           D/G G Bm/A A 
But you won't hear a word 'cause it just might be the same 
    Bm/A A7 
old line

            A/C# Bm G D/F# G 
This isn't easy for me to say Diane
        D Bm A D 
I know you don't need anybody's protection
             A/C# Bm G D/F# G 
I really wish I was less of a thinking man
               D/F# Em D/F#     
And more a fool who's not afraid of rejection

 Bm A G D/F# Em G 
All night long, all night long
                  D/F# Bm A Bm 
I'll just be standing here 'cause I know I don't have the 

Sleeping By Myself Tabs by Pearl Jam

 -------------------------------------------------------------------------------
                             Sleeping By Myself - Pearl Jam
-------------------------------------------------------------------------------
: boyaguitarra
 boyaguitarra

source: http://boyaguitarra.blogspot.com/2013/11/sleeping-by-myself-de-pearl-jam-stone.html

Tuning: Standard Capo +7

|-0--0--0-0-|-0--0--0-0-|-0-0-------|-----------|-0--0--0-0-|-0--0--0-0-|-0-0-------|-----------|
|-1--1--1-1-|-1--1--1-1-|-0-0-------|-----------|-1--1--1-1-|-1--1--1-1-|-0-0-------|-----------|
|-0--0--0-0-|-2--2--2-2-|-0-0-------|-----------|-0--0--0-0-|-2--2--2-2-|-0-0-------|-----------|
|-2--2--2-2-|-2--2--2-2-|-2-2-------|-----------|-2--2--2-2-|-2--2--2-2-|-2-2-------|-----------|
|-3--3--3-3-|-0--0--0-0-|-2-2-------|-----------|-3--3--3-3-|-0--0--0-0-|-2-2-------|-----------|
|-----------|-----------|-0-0-------|-----------|-----------|-----------|-0-0-------|-----------|

|-0--0--0-0-|-0--0--0-0-|-0--0--0-0-|-0--0--0-0-|-0--0--0-0-|-0--0--0-0-|-0--0--0-0-|-0--0--0-0-|
|-1--1--1-1-|-1--1--1-1-|-0--0--0-0-|-0--0--0-0-|-1--1--1-1-|-1--1--1-1-|-0--0--0-0-|-0--0--0-0-|
|-0--0--0-0-|-2--2--2-2-|-0--0--0-0-|-0--0--0-0-|-0--0--0-0-|-2--2--2-2-|-0--0--0-0-|-0--0--0-0-|
|-2--2--2-2-|-2--2--2-2-|-2--2--2-2-|-2--2--2-2-|-2--2--2-2-|-2--2--2-2-|-2--2--2-2-|-2--2--2-2-|
|-3--3--3-3-|-0--0--0-0-|-2--2--2-2-|-2--2--2-2-|-3--3--3-3-|-0--0--0-0-|-2--2--2-2-|-2--2--2-2-|
|-----------|-----------|-0--0--0-0-|-0--0--0-0-|-----------|-----------|-0--0--0-0-|-0--0--0-0-|

|-1--1--1-1-|-1--1--1-1-|-1--1--1-1-|-1--1--1-1-|-0--0--0-0-|-0--0--0-0-|-0--0--0-0-|-0--0--0-0-|
|-1--1--1-1-|-1--1--1-1-|-0--0--0-0-|-0--0--0-0-|-3--3--3-3-|-3--3--3-3-|-3--3--3-3-|-2--2--2-2-|
|-2--2--2-2-|-2--2--2-2-|-0--0--0-0-|-0--0--0-0-|-3--3--3-3-|-3--3--3-3-|-2--2--2-2-|-2--2--2-2-|
|-3--3--3-3-|-3--3--3-3-|-0--0--0-0-|-0--0--0-0-|-0--0--0-0-|-0--0--0-0-|-2--2--2-2-|-2--2--2-2-|
|-3--3--3-3-|-3--3--3-3-|-2--2--2-2-|-2--2--2-2-|-----------|-----------|-0--0--0-0-|-0--0--0-0-|
|-1--1--1-1-|-1--1--1-1-|-3--3--3-3-|-3--3--3-3-|-----------|-----------|-----------|-----------|

|-1--1--1-1-|-1--1--1-1-|-1--1--1-1-|-1--1--1-1-|
|-1--1--1-1-|-1--1--1-1-|-0--0--0-0-|-0--0--0-0-|
|-2--2--2-2-|-2--2--2-2-|-0--0--0-0-|-0--0--0-0-|
|-3--3--3-3-|-3--3--3-3-|-0--0--0-0-|-0--0--0-0-|
|-3--3--3-3-|-3--3--3-3-|-2--2--2-2-|-2--2--2-2-|
|-1--1--1-1-|-1--1--1-1-|-3--3--3-3-|-3--3--3-3-|

|-0--0--0-0-|-0--0--0-0-|-0-0-------|-----------|-0--0--0-0-|-0--0--0-0-|-0-0-------|-----------|
|-1--1--1-1-|-1--1--1-1-|-0-0-------|-----------|-1--1--1-1-|-1--1--1-1-|-0-0-------|-----------|
|-0--0--0-0-|-2--2--2-2-|-0-0-------|-----------|-0--0--0-0-|-2--2--2-2-|-0-0-------|-----------|
|-2--2--2-2-|-2--2--2-2-|-2-2-------|-----------|-2--2--2-2-|-2--2--2-2-|-2-2-------|-----------|
|-3--3--3-3-|-0--0--0-0-|-2-2-------|-----------|-3--3--3-3-|-0--0--0-0-|-2-2-------|-----------|
|-----------|-----------|-0-0-------|-----------|-----------|-----------|-0-0-------|-----------|

|-0--0--0-0-|-0--0--0-0-|-0--0--0-0-|-0--0--0-0-|-0--0--0-0-|-0--0--0-0-|-0--0--0-0-|-0--0--0-0-|
|-1--1--1-1-|-1--1--1-1-|-0--0--0-0-|-0--0--0-0-|-1--1--1-1-|-1--1--1-1-|-0--0--0-0-|-0--0--0-0-|
|-0--0--0-0-|-2--2--2-2-|-0--0--0-0-|-0--0--0-0-|-0--0--0-0-|-2--2--2-2-|-0--0--0-0-|-0--0--0-0-|
|-2--2--2-2-|-2--2--2-2-|-2--2--2-2-|-2--2--2-2-|-2--2--2-2-|-2--2--2-2-|-2--2--2-2-|-2--2--2-2-|
|-3--3--3-3-|-0--0--0-0-|-2--2--2-2-|-2--2--2-2-|-3--3--3-3-|-0--0--0-0-|-2--2--2-2-|-2--2--2-2-|
|-----------|-----------|-0--0--0-0-|-0--0--0-0-|-----------|-----------|-0--0--0-0-|-0--0--0-0-|

|-1--1--1-1-|-1--1--1-1-|-1--1--1-1-|-1--1--1-1-|-0--0--0-0-|-0--0--0-0-|-0--0--0-0-|-0--0--0-0-|
|-1--1--1-1-|-1--1--1-1-|-0--0--0-0-|-0--0--0-0-|-3--3--3-3-|-3--3--3-3-|-3--3--3-3-|-2--2--2-2-|
|-2--2--2-2-|-2--2--2-2-|-0--0--0-0-|-0--0--0-0-|-3--3--3-3-|-3--3--3-3-|-2--2--2-2-|-2--2--2-2-|
|

The Girl chords – Sleeping With Sirens V2

 This "song" was originally two small songs Kellin Quinn and Caleb Shomo were writing at 
the time and sang what they had for a Collapse Studios video. Both songs are about a 
special girl they had in their life. Jesse Lawson played the guitar parts.

This is all played in Drop C with no capo. Just to note, the chords may not be named 
correctly, but they're accurate. Watch the video for the strumming pattern, etc.

Chords:
C (G bass) - 332010 (I'm just listing this as C below)
 B9  - xx2100
 Am  - 002210
-----------------------

Kellin's part:

 C 
Oh ohh ohh ohh oh ohh
 B9 
Oh ohh ohh ohh oh ohh (x2)

 C 
Caught my eye from the second you walked by
 B9 C 
I had to see if I could make you mi-ine
                        B9 
Oh, but I ain't got no time to waste, no ti-i-i-i-ime
 C 
You see my heart, it goes through these motions
 B9 Am 
But my mind can't decide whether to keep or leave you alone,
 B9 
Or what I need to make you come back home
 Am 
The stars are shining on us tonight
 B9 
You know exactly what is on my mind
              Am 
Spare me the details, cut to the chase
 B9 
Close the curtains 'cause I'm running for ya
                       C 
My body's burning for ya


Caleb's part:

 Am 
You make it too easy girl,
 B9 
For me to lose myself in your world
 Am 
All those words I said, all the money spent
 B9 
All those diamond rings and pearls
 Am 
You know my chips are down
 B9 
But we got time to figure it out
 Am 
I don't know where to start but I know my heart
 B9 
Won't beat unless you're around
 Am B9 
So close your eyes, I'm gonna take you for a ride
                Am 
The stars are shining on us tonight
 C 
But girl you know what's on my mind
               Am 
Spare me the details, cut to the chase
 C 
Those curtains close, I'm hurting for ya
                       Am 
My body's hurting for ya

Sleeping Sickness chords – City And Colour V8

 Sleeping Sickness
City And Colour
     
Intro:
 Em  -  C  -  G  -  G/F#  -  Em  -  C  -  G 

Verse 1:
 G/F# Em C G      
I awoke only to find my lungs empty 
     G/F# Em C G        
And through the night so it seems I'm not breathing 
     G/F# Em C G 
And now my dreams are nothing like they were meant to be
         G/F# Em C G 
And I'm breaking down, I think I'm breaking down

Verse 2:
     G/F# Em C G 
And I'm afraid to sleep because of what haunts me
 G/F# Em C G 
Such as living with the uncertainty
  G/F# Em C G 
That I'll never find the words to say which would completely explain,
 G/F# Em C G G/F#  (stop!)
       Just how I'm breaking down


Chorus:
 G Em C 
Someone come and, someone come and save my life
             G Em 
Maybe I'll sleep when I am dead
                       C 
But now it's like the night is taking sides
      G Em C 
With all the worries that occupy the back of my mind
          G Em C 
Could it be this misery will suffice?

 Em  -  C  -  G  -  G/F#  -  Em  -  C  -  G 

Verse 3: 
 G/F# Em C G                   
I've become a simple souvenir of someone's kill 
     G/F# Em C G 
And like the sea I'm constantly changing from calm to ill
 G/F# Em C G  
     Madness fills my heart & soul as if the great divide 
could swallow me whole
 G/F# Em C G G/F#  (stop!)
        Oh how I'm breaking down


Chorus

Bridge (Guitar solo over chorus) 

Chorus