Tag: slow

Slow Hands Piano Chords by Niall Horan

[Verse 1]
C                             Am                                             
  We should take this back to my place
C                               Am
  That's what she said right to my face
F                       G
  'Cause I want you bad, yeah I want you baby

C                             Am
  I've been thinking 'bout it all day
C                         Am                                         
  And I hope you feel the same way (yeah) 
F                       G (mute) 
  'Cause I want you bad,   yeah I want you baby


[Chorus 1]
F
Slow, slow hands
     G                       Am
Like sweat dripping down our dirty laundry
F
No, no chance
         G               E
That I'm leaving you without you want me
F
I, I know 
       G                       Am
Yeah I already know that there ain't no stopping
F                      G (mute)
  Your plans and those    slow hands (woo)

C  Am
      Slow hands
C  Am


[Verse 2]
C                   Am
  I just wanna take my time
C                        Am 
  We could do this baby, all night (yeah)
F                       G (mute) 
  'Cause I want you bad,   yeah I want you baby


[Chorus 2]
F
Slow, slow hands
     G                       Am
Like sweat dripping down our dirty laundry
F
No, no chance
         G               E
That I'm leaving you without you want me
F
I, I know 
       G                       Am
Yeah I already know that there ain't no stopping
F                      G (mute)
  Your plans and those    slow hands (woo)


[Bridge]
Fmaj7
   Fingertips putting on a show
Gsus4
   Got me now and I can't say no
E7
   Wanna be with you all alone
Am 
   Take me home, take me home
Fmaj7
   Fingertips putting on a show
E7
   Can't you tell that I want you baby 


[Chorus 3]
F
Yeah, slow hands
     G                       Am
Like sweat dripping down our dirty laundry
F
No, no chance
         G               E
That I'm leaving you without you want me
F
I, I know 
       G                       Am
Yeah I already know that there ain't no stopping

F
  Slow hands
     G                       Am
Like sweat dripping down our dirty laundry
F
No, no chance
         G               E
That I'm leaving you without you want me
F
I, I know 
       G                       Am
Yeah I already know that there ain't no stopping
F                      G (mute)
  Your plans and those    slow hands (woo)

C  Am
      Your slow hands
C  Am
      Oooh, slow hands

Slow Hands Chords by Niall Horan

Verse          Chorus         Bridge  
----------     ----------     -------------
C   x3201x     F   13321x     Fmaj7  x33210 
Am  x0221x     G   32003x     Gsus2  3x0013
F   13321x     Am  x0221x     E7     xx2434
G   32003x     E   02210x     Am     x02210


[Intro]

e|--------------------------------------------------|
B|-------------------------------8------------------|
G|---7/9--7--5--------5--5/7--------5---------------|
D|-----------------7----------------------5h7p5-----|x2
A|----------------------------------------------7---|
E|--------------------------------------------------|
/ = slide up
h = hammer-on
p = pull-off

C  Am
C  Am


[Verse 1]
C                             Am                                             
  We should take this back to my place
C                               Am
  That's what she said right to my face
F                       G
  'Cause I want you bad, yeah I want you baby

C                             Am
  I've been thinking 'bout it all day
C                         Am                                         
  And I hope you feel the same way (yeah) 
F                       G (mute) 
  'Cause I want you bad,   yeah I want you baby


[Chorus 1]
F
Slow, slow hands
     G                       Am
Like sweat dripping down our dirty laundry
F
No, no chance
         G               E
That I'm leaving you without you want me
F
I, I know 
       G                       Am
Yeah I already know that there ain't no stopping
F                      G (mute)
  Your plans and those    slow hands (woo)

C  Am
      Slow hands
C  Am


[Verse 2]
C                   Am
  I just wanna take my time
C                        Am 
  We could do this baby, all night (yeah)
F                       G (mute) 
  'Cause I want you bad,   yeah I want you baby


[Chorus 2]
F
Slow, slow hands
     G                       Am
Like sweat dripping down our dirty laundry
F
No, no chance
         G               E
That I'm leaving you without you want me
F
I, I know 
       G                       Am
Yeah I already know that there ain't no stopping
F                      G (mute)
  Your plans and those    slow hands (woo)


[Bridge]
Fmaj7
   Fingertips putting on a show
Gsus4
   Got me now and I can't say no
E7
   Wanna be with you all alone
Am 
   Take me home, take me home
Fmaj7
   Fingertips putting on a show
E7
   Can't you tell that I want you baby 


[Chorus 3]
F
Yeah, slow hands
     G                       Am
Like sweat dripping down our dirty laundry
F
No, no chance
         G               E
That I'm leaving you without you want me
F
I, I know 
       G                       Am
Yeah I already know that there ain't no stopping

F
  Slow hands
     G                       Am
Like sweat dripping down our dirty laundry
F
No, no chance
         G               E
That I'm leaving you without you want me
F
I, I know 
       G                       Am
Yeah I already know that there ain't no stopping
F                      G (mute)
  Your plans and those    slow hands (woo)

C  Am
      Your slow hands
C  Am
      Oooh, slow hands

Slow Boat chords – Kathy Mattea

 Kathy Mattea - Slow Boat


CAPO: 4th Fret




INTRO:  G C G - Gadd9 - G - Gadd9 - C Cadd9 - Cadd9 - C G C 
Wouldn't it be nice if we could take a trip?
                        G D C 
Maybe head down to the ocean?
                            Am7 Bm 
For just once in our lives
                 Em Dsus2/A 
Leave the world behind
     A7 D7 D 
And just chase a crazy notion


CHORUS:
      G Am G C 
In a slow boat, just you and me together
 D Em Am D7 
Nothing else to push us but the wind
      G Am G C 
In a slow boat, who knows what we'll discover
 Em C G  
We might even find each other again


INTERLUDE:  G C G - Gadd9 - G - Gadd9 - C Cadd9 - Cadd9 - C G C 
Forget about the house, forget about the job
                           G D C 
Drop the kids off at your mothers
                          Am7 Bm 
In just a couple of days       
              Em Dsus2/A 
We could be amazed
          A7 D7 D 
And even find time to be lovers


CHORUS:
      G Am G C 
In a slow boat, just you and me together
 D Em Am D7 
Nothing else to push us but the wind
      G Am G C 
In a slow boat, who knows what we'll discover
 Em C G  
We might even find each other again


INSTRUMENTAL:  G Am G C D Em Am D7 G Am G C 
In a slow boat, who knows what we'll discover
 Em C G  
We might even find each other again (in a slow boat)


OUTRO:  G - Gadd9 - G - Gadd9 - C Cadd9 G

Slow Dancing In A Burning Room intro Tabs – John Mayer V6

 How about this? It's just the first part of the intro.

 If you know the song very well then you will be able to know the hammering,plucking,strumming
 and the power chords' parts


So, the low E string is always played with the thumb. Thanks! :))))))


e------------------------4------------|
b------------------------5------------|
g-------9--9-8-9--8--------6----------|
d------------9-11-9-9-11-9-4-6--------|
a--9-11----11-------9-11-9------------|
e--------9-9--------------------------|


e--------------------------4----------|
b--------------------------5----------|
g-------9--9-8-9--8--------4----------|
d------=-----9-11-9-9-11-9-6-4-6-4-6--|
a--9-11----11-------9-11-9---------7--|
e--------9-9--------------------------|
      

Slow Train Tabs – Rainbows Are Free

 -------------------------------------------------------------------------------
                             Slow Train - Rainbows Are Free
-------------------------------------------------------------------------------
: VakiPitsi


Tuning: Standard (eBGDAE)

Intro (0:00)

e|------------------------------------------------------------------------------------------------------------|
B|------------------------------------------------------------------------------------------------------------|
G|------------------------------------------------------------------------------------------------------------|
D|----------------2---------2-4p2------------4-4-4--7-7-7----------------2---------2-4p2---2-------4-4-4--7-77|
A|-h4-4-4-2-4-2-4---4-4-2-4-------4-4--4-2-4-4-4-4--7-7-7--4-4-4-2-4-2-4---4--4-2-4------4---4-2-4-4-4-4--7-77|
E|-------------------------------------------2-2-2--5-5-5------------------------------------------2-2-2--5-55|

Riff 1 (0:17)

e|-------------------------------------------------------|
B|-------------------------------------------------------|
G|-------------------------------------------------------|
D|--------4p2-4p2-------------------4p2---2--------------|
A|-4--2h4---------------2h4---4-2h4-----4---4-2----------|
E|----------------2h3h4----------------------------------|

Riff 2  ((0:43)                      Riff 3 (0:46)

e|----------------------|----------------------------------------------------------------|
B|----------------------|--------------------------------------------------------3-------|
G|----------------------|-------------------------2-------------------------2-------4----|
D|--------6-6-6--4-4-4--|-4-4-4-4-4-4---------2-----4--4-4-4-4-4-4-4--2h3h4----4---------|
A|-4-2h4--6-6-6--4-4-4--|-4-4-4-4-4-4---2h3h4---4------4-4-4-4-4-4-4---------------------|
E|--------4-4-4--2-2-2--|-2-2-2-2-2-2------------------2-2-2-2-2-2-2---------------------|

Riff 4 (1:42)

e|--------------------------------------|
B|--------------------------------------|
G|--------------------11b---------------|
D|--------------9-9-9-----11------------|
A|--11-11--9-9--------------------------|
E|--------------------------------------|

Riff 5 (2:01)                    Riff 5.1

e|---------------------|----------------------------------------|
B|---------------------|----------------------------------------|
G|---------------------|--------------------9-9-9--11b----------|
D|-11-9-11b~~p9-9-11---|-11-9-11b~~p9-9-11-------------11-------|
A|---------------------|----------------------------------------|
E|---------------------|----------------------------------------|

Riff 6 (2:44)

e|-----------------------------|
B|-----------------------------|
G|-----------------------------|
D|-4-4-4-4-4-4--6-6--4-4-4-----|
A|-4-4-4-4-4-4--6-6--4-4-4-----|
E|-2-2-2-2-2-2--4-4--2-2-2-----|


Riff order:

Intro  
Riff 1 : x4
Riff 2 
Riff 3 : x1+1/2
Riff 4   
Riff 1 : x4
Riff 3 : x1+1/2
Intro
Riff 5 : x2
Riff 5.1
Riff 6 : until the end of the song




************************************

| /   slide up
| \   slide down
| h   hammer-on
| p   pull-off
| ~   vibrato
| +   harmonic
| x   Mute note
| b   Bend
| pb  Pre-bend
| br  Bend release
| pbr Pre-bend release
| brb Bend release bend

************************************

Sunburn Tabs by Slow Warm Death

 SLOW WARM DEATH - SUNBURN






Tuning: EADGBe
http://slowwarmdeath.bandcamp.com/



INTRO:

E|------------------------------------------------------|
B|------------------------------------------------------|
G|------------------------------------------------------|
D|------------------------------------------------------|
A|--------------------5--7--5-----------------5h7p5--2--|
E|--5--5--6--7--7--7-----------7--7--5--6--7------------|



VERSE:

E|--7-------0---|
B|--7-------0---|
G|--8-------1---|
D|--9-------2---|
A|--9-------2---|
E|--7-------0---|



CHORUS:

E|--7--------2--------7--------0--------7----5----0----|
B|--7--------2--------7--------0--------7----5----0----|
G|--8--------3--------8--------1--------8----6----1----|
D|--9--------4--------9--------2--------9----7----2----|
A|--9--------4--------9--------2--------9----7----2----|
E|--7--------2--------7--------0--------7----5----0----|



AT THE END OF THE SECOND CHORUS, PLAY THIS:

E|--2---|
B|--2---|
G|--3---|
D|--4---|
A|--4---|
E|--2---|




INTRO
VERSE
CHORUS
INTRO
VERSE
CHORUS x2
CHORUS (INSTRUMENTAL)
CHORUS

Slow Education chords – Silver Jews V2

 Adapted from The Corduroy Suit, originally Neil Allen

Slow Education:
 G C G 
When God was young He made the wind and the sun
 G C G 
And since then It's been a slow education
 D C G 
And you got that one idea again. The one about dying
 G D C 
Oh, oh, oh I'm lightning
 G D C 
Oh, oh, oh I'm rain
 G D C 
Oh, oh, oh it's frightening
 G 
I'm not the same
 D 
I'm not the same
 C 
I'm not the same
 G C G 
There's a screen door banging in the wind
 G C G 
Remember you wanted to be like George Washington back then
 G C G 
Everybody going down on themselves
 G C G 
No pardon me's or fair thee wells in the end
 D C G 
And you got that one idea again. The one about dying
 G D C 
Oh, oh, oh I'm lightning
 G D C 
Oh, oh, oh I'm rain
 G D C 
Oh, oh, oh it's frightening
 G 
I'm not the same
 D 
I'm not the same
 C 
I'm not the same

Slow Fade chords – Praise And Worship

 Am C G F Am C 
Be careful little eyes what you see
          G F 
It’s the second glance that ties your hands as darkness pulls the strings
    Am C 
Be careful little feet where you go
              G F 
For it’s the little feet behind you that are sure to follow


        Am G 
It’s a slow fade when you give yourself away
        Dm F 
It’s a slow fade when black and white have turned to gray
 Am G C 
Thoughts invade, choices are made, a price will be paid
          F 
When you give yourself away
 Dm G 
People never crumble in a day
        Am C G F 
It’s a slow fade, it’s a slow fade


    Am C 
Be careful little ears what you hear
      G F 
When flattery leads to compromise, the end is always near
    Am C 
Be careful little lips what you say
     G F 
For empty words and promises lead broken hearts astray


        Am G 
It’s a slow fade when you give yourself away
        Dm F 
It’s a slow fade when black and white have turned to gray
 Am G C 
Thoughts invade, choices are made, a price will be paid
          F 
When you give yourself away
 Dm G 
People never crumble in a day


     Dm F 
The journey from your mind to your hands
                            Am G 
Is shorter than you’re thinking
    Dm F 
Be careful if you think you stand
                      Am G 
You just might be sinking


        Am G 
It’s a slow fade when you give yourself away
        Dm F 
It’s a slow fade when black and white have turned to gray
 Am G C 
Thoughts invade, choices are made, a price will be paid
          F 
When you give yourself away
 Dm G 
People never crumble in a day
 Dm G 
Daddies never crumble in a day
 Dm F 
Families never crumble in a day


       Am C 
Oh be careful little eyes what see
       G F 
Oh be careful little eyes what you see
         Am C 
For the Father up above is looking down in love
       G F 
Oh be careful little eyes what you see

A Deep Slow Panic intro Tabs by Afi

 AFI - A Deep Slow Panic
 Burials

Jade usually has tuned his guitar Half step down. But just for the intro I used 
standart tunning...
I love this song! 

(Use a Digital Delay and a Distortion)

Standart Tunning:


e¦---------------------------------------¦
B¦---------------------------------------¦
G¦--------------------------12-13-12-----¦
D¦-10--10-12--10--12-13-13-----------13--¦
A¦---------------------------------------¦
E¦---------------------------------------¦


e¦---------------------------------------¦-13\slide down -------------------¦
B¦---------------------------------------¦----------------------------------¦
G¦--------------------------12-13-12-----¦----------------------------------¦
D¦-10--10-12--10--12-13-13-----------15r-¦----------------------------------¦
A¦---------------------------------------¦----------------------------------¦
E¦---------------------------------------¦----------------------------------¦


e¦---------------------------------------¦
B¦---------------------------------------¦
G¦-12-13-12------------------------------¦
D¦----------13-13--12r-------------------¦
A¦---------------------------------------¦
E¦---------------------------------------¦


That's it. That's what I know. Have fun! 
Feel free to correct

Slow It Down Acoustic chords – Lumineers V2

 This is about as close as you can get it for Standard Tuning and No Capo to the recorded 
version by just strumming.

Great campfire song


(Verse 1)
 C F 
  I feel her filth in my bones
 C F 
  Wash off my hands 'til its gone
 C 
  The walls they're closing in
 F C F 
   With velvet curtains

(Verse 2)
 C F 
  Some love was made for the light
 C F 
  Some kiss your cheek and goodnight
 C 
  Lift up a red high heel
 F C F 
  Lock up your doors with steel

(Verse 3)
 C F 
  They're makin' noise in my street
 C F 
  My blinds are drawn i cant see
 C 
  Smashed in my car window
 F C F 
  Didn't touch the stereo

Chorus:
 F Am G C 
Slow it down, Angie come back to bed
 F Am G C 
Rest your arms, and rest your legs

(Verse 4)
 C F 
  Act like you've been here before
 C F 
  Smile less and dress up some more
 C F 
  Tie up your scarf real tight
 F C F 
  These boys are out for blood tonight

Chorus:
 F Am G C 
Slow it down, Angie come back to bed
 F Am G C 
Rest your arms, and rest your legs

(Verse 5)
 C F 
  And when she stood she stood tall
 C F 
  Shell make a fool of you all
 C 
  Don't ask for cigarettes
 F C F 
  She aint' got nothin' left for you

(Verse  6)
 C F 
  I never, she never, we never looked back
 C F 
  That wasn't what we were good at
 C F 
  And when it came to love
 F C F 
  We were not good enough

Chorus:
 F Am G C 
Slow it down, Angie come back to bed
 F Am G C 
Rest your arms, and rest your legs

let me know what you think feel free to add corrections/suggestions :)

Dont Slow Down chords – Ub40

 'Don`t Slow Down'was a double A side U.K single with
'Don`t Let It Pass You By',And they both appear on UB40`s 1981'Present Arms'

 F =EADGBE   C =EADGBE   Bb =EADGBE
  133211    x35553     x13331

Intro:
 F   | F   | C   | C   | F   | F   | C   | C   | Bb   | Bb   | C   | C   | Bb   | Bb   | C   | C   |   

Verse 1:
    F C 
You might believe?,And still you feel the chase has just begun,
     F C 
That you must reach the horizon before,The setting of the sun,
     Bb C 
You chase the light in front of you,Nightfall is close behind,
 Bb C 
If you stop to catch a breath,You know what you will find.

Chorus 1:
 F C                       
Don`t slow down don`t touch the ground,You know what you will find,
         Bb C  
That old grey man in tattered clothes following behind,
         Bb C 
That old grey man in tattered clothes following behind.

Saxophone Instrumental:
 F   | F   | C   | C   | F   | F   | C   | C   | Bb   | Bb   | C   | C   | Bb   | Bb   | C   | C   |

Verse 2:
 F C 
No time to stop don`t go to sleep,Prepare to pay the cost,
    F C 
The hours and minutes are passing by,Another day is lost,
    Bb C 
Impatience is a virtue,Catch me if you can,
      Bb C 
The seconds have been ticking by,Since your life began.

Chorus 2:
 F C 
Don`t slow down don`t touch the ground,You know what you will find,
     Bb C 
That old grey man in tattered clothes following behind,
     Bb C 
That old grey man in tattered clothes following behind.

Instrumental:
| F   | F   | C   | C   | F   | F   | C   | C   | Bb   | Bb   | C   | C   | Bb   | Bb   | C   | C   |

Chorus 3:
 F C 
Don`t slow down don`t touch the ground,You know what you will find,
     Bb C 
That old grey man in tattered clothes following behind,
     Bb C 
That old grey man in tattered clothes following behind,
     Bb C 
That old grey man in tattered clothes following behind.

Outro:
||: F   | F   | C   | C   | F   | F   | C   | C   | Bb   | Bb   | C   | C   | Bb   | Bb   | C   | C   :||

Dance Slow Decades chords – Angel Olsen

 D Dmaj7 
thought I had a clue
                      D 
it was passing by
 D Dmaj7 
thought I had an answer
                D 
it was just a sigh
 D Dmaj7 
thought I had a dream once
                 D 
don't remember what
 D Dmaj7 
your voice cut straight through me
                     D 
right down to my bones
 D Dmaj7 
like a winters wind it
                 D 
knocked out my soul
 D Dmaj7 
thought i had some time here
                 D 
left my watch home
 D Dmaj7 
thought i had ideas once
                   D 
they were all unknown
 D Dmaj7 
thought i conquered something 
                 D 
but it took me down 
 D Dmaj7 
what i thought i heard clearly
               D 
it wasn't sound
 D Dmaj7 
thought i felt your heart beat
                          D 
it was just my kind of tune
 D Dmaj7 
and to what gods will
                  D 
my life be a mantel

 D Dmaj7 D D Dmaj7 D A G 
I can hear you crying 
             D Dsus4 D Dsus2 D 
and I'm crying too
 A G 
The world might be lying 
            D Dsus4 D Dsus2 D 
but so are you
 A G 
I can see you dancing
                      D Dsus4 D Dsus2 D 
if you just take the step
 A G 
you might still have it in you
                     D Dsus4 D Dsus2 D 
give yourself the benefit
 A G 
and dance slow decades
                D Dsus4 D Dsus2 D 
don't let the sun
 A G D Dsus4 D Dsus2 D 
even when you're the only one
 A G 
don't look around
               D 
it's not right
 Dsus4 D Dsus2 D 
it's not wrong
 A G D Dsus4 D Dsus2 D 
dance because you know this song
 A G D Dsus4 D Dsus2 D 
I've danced because I know this one

 A G Em G D Dsus4 D Dsus2 D A G Em G D Dsus4 D Dsus2 D A G Em G D Dsus4 D Dsus2 D A G Em G D Dsus4 D Dsus2 D

Christmas Thanks For Nothing chords – Slow Club

 Standard Tuning.

***

       C C/C# 
Those vicious friends you can't avoid
     F G7 
The family truce has just destroyed
     C C/C# 
And inbetween the courses I
 F G7 
Think about the year behind

 C C7 
And if I could go back again
 F Fm 
Would I change a single thing?
    C A7 
Oh Christmas, thanks for nothing
               F G7 
You've made a doubter out of me.

 C A7 
(Doubter out of me)
    F G7 
A doubter out of me
 C A7 
(Doubter out of me)
   F G7 
A doubter out of me

          C C#/C  
It's the simple things that mean the most
     F G7 
The insincere tone of the host
 C C#/C 
Sending me back to the wall
    F G7 
If only they had installed a door

     C C7 
I'd run straight through to you and see
    F Fm 
If there was still a possibility
    C A7 
Oh Christmas, thanks for nothing
               F Fm 
You've made a doubter out of me

 C A7 
(Doubter out of me)
    F G7 
A doubter out of me
 C A7 
(Doubter out of me)
   F G7 
A doubter out of me
 C A7 
(Doubter out of me)
   F G7 
A doubter out of me
 C A7 
(Doubter out of me)
   F G7 
A doubter out of me

 F Fm C A7 Dm G7 F C F C F C 
Another year
 F C 
Must count for something
    F C 
We can't do this forever
 G F C 
Thanks for nothing

 F C 
Another year
 F C 
Must count for something
    F C 
We can't do this forever
 G F C 
Thanks for nothing
 G F C 
Thanks for nothing
 G F C 
Thanks for nothing
 G F C 
Thanks for nothing

 G F C C F 

***

Merry Christmas.

-Steven.

Slow chords – Audrey Assad

 Db   /  /   F#  /  X2

Verse 1
 Db F# Db 
You've drawn so close  that it's hard to see you 
 Db Dbm Db 
And you speak so softly That it's hard to hear you 
         Bbm Ab  
And I guess that's what I get 
         F# Db 
For inviting you in 
                 Ebm Ab 
Because you took me at my wo-o-rd 
   Db  
And now I know 

Chorus
                Bbm Ebm 
Faith is not a fire  as much as it's a glow 
                 Ab Fm 
A quiet lovely burning Underneath the snow 
             Bbm Fm Bbm Ebm 
 its not too much its just enough to get me home 
                       Ab Db Ebm Ab 
Cause love moves slow,  Love moves slow 

Verse 2
 Db F# Db 
  You run so deep That it's hard to miss you 
                   F# Db 
And you come so ne-ar That it's hard to feel you 
 Ab Db F# Db 
Oh, and I guess that's how it is  When I let you move
                Ebm Ab 
Because you take me at my wo-ord 
 Db               
Oh, and now I know 

Chorus 2
 Ab Db Bbm Db Ebm 
That faith is not a fire As much as it's a glow 
                      Ab Fm 
A steady humble lamplight In the wi-i-indow 
         Bbm Fm Bbm Ebm 
And it's not too much It's just enough to get me home 
                         Ab Bbm 
'Cause love moves slow  Love moves slow 



Bridge 
 Bbm  
I heard that faith moves mountains
 Ebm Ab Db Bbm 
I know it moves my fe-et     To follow you 

And maybe I'm a mountain 
                   Ebm Ab Db  
Because it's movi-ing me To follow you 

Chorus 3
         Ab Bbm Ebm 
My faith is not a fire As much as it's a glow 
                          Ab Fm  
A little burning ember In my weary soul 
         Bbm 
And it's not too much 
 Fm Bbm F# 
It's just enough to get me home 

Because your love moves slow
  Ab Db 
Yeah, your love moves slow 

So I move slow 
                       F# 
Because you move slow 
                
Love moves slow 
 Ab Db 
  Let's move slow

Go Slow chords – Haim V3

 (This is not my tab, it's from a brasilian website, but i thought i would share here.
The original is : http://www.cifraclub.com.br/haim/go-slow-/)


Intro/Verse: (G A F#m G)


e|--------------------------------------------------------|
B|--------------------------------------------------------|
G|--------------------------------------------------------| 2x
D|-55-00--55-00-------------------------------------------|
A|-------------------0h2-2/5-5-0-0------------------------|
E|---------------------------------3-3-3-3----------------|

Go Slow chords – Haim V2

 G D 
Go slow
 A 
So that I can hear everything you're saying
 G D 
Now I know you're going
 A 
You just threw this away
                         G 
You know I ain't gonna take it
Go slow
 D A G 
But we ain't gonna make it
I know
 D A 
I can't make you stay
                               G D A 
But I'll be hurting from the heat...
                   G D A 
Running from the heat...

                      G 
Well, well, was it something that I said
    A D 
I know that it was something I said
From your heat now
                     G 
Going crazy trying hard to forget
      A D 
You know I'm trying to hard forget
From your heat now
                 G A D 
Oh I just wanna go back, hold on to the way that I was
                       G A 
'Cause you took away all my young life
        D G A D 
And I hate who I've become from your heat now
                                G A D 
From your heat it's coming, coming

 G D 
I know
      A 
I'm giving in and believing every lie
      G D 
For now, the moon, it's night
 A 
I turn off the light
                            G 
And you should put the foundation
Go slow
 D A 
Now
                 G 
With your intimidation
I know  
 D A               
Oh and you turn away
                               G D A 
Now I'll be hurting from the heat...
                    G D A 
Running from the heat...

                      G 
Well, well, was it something that I said
    A D 
I know that it was something I said
From your heat now
                     G 
Going crazy trying hard to forget
      A D 
You know I'm trying to hard forget
From your heat now
                 G A D 
Oh I just wanna go back, hold on to the way that I was
                       G A 
'Cause you took away all my young life
        D G A D 
And I hate who I've become from your heat now
                 G A D 
From your heat now

                 G 
From your heat now
                 A 
From your heat now
                 D 
From your heat now
                 G 
From your heat now, now, now, now
                 A 
From your heat now
                 D 
From your heat now
                 G 
From your heat now, now, now, now

 G  -  A  -  D G  -  A  -  D G 
Well, well, was it something that I said
    A D 
I know that it was something I said
From your heat now
                               G 
Well, I'm going crazy trying hard to forget
      A D 
You know I'm trying to hard forget
From your heat now
                 G A D 
Oh I just wanna go back, hold on to the way that I was
                       G A 
'Cause you took away all my young life
        D G A<

Sometimes I Rhyme Slow Tabs by Nice And Smooth V2

 e------------------7-7--6-6----------------------------|
G--2h3p2--5-5------------------------------------------|
B------------------------------------------------------|
D------------------------------------------------------|
A------------------------------------------------------|
E------------------------------------------------------|

Never Looking Back Tabs by Slow Club

 -------------------------------------------------------------------------------
                             Never Looking Back - Slow Club
-------------------------------------------------------------------------------
: Gabriel M.
 N/A

So this is what I have so far so help me, help you. Lets correct it so we can have 
the best tab possible.
This version is from this video: 



You need to find the timing, I just gave you the chord with the melody's in between.

Please send a message if you think something is wrong so I can correct.
 
Good Luck and buy the LP's!  


Tuning: Half Step Down


Intro Part:
D#|--0--0------------2-2----------2-2-----------0-0----------------|-------------------|
A#|--2--2------------3-3----------3-3-----------2-2----------------|-------------------|
F#|--2--2------------4-4----------4-4-----------2-2----------------|-------------------|
C#|--2--2------------4-4----------4-4-----------2-2----------------|-------------------|
G#|--0--0------4-2---2-2--------2-2-2--4-2-0-0--0-0--/9-7-4-2-0----|-------------------|
D#|--------0-2------------0-2-5------------------------------------|-------------------|

Versus: 

D#|--0--0------------2-2----------2-2-----------0-0-----------------------------------|
A#|--2--2------------3-3----------3-3-----------2-2-----------------------------------|
F#|--2--2------------4-4----------4-4-----------2-2-----------------------------------|
C#|--2--2------------4-4----------4-4-----------2-2-----------------------------------|
G#|--0--0------4-2---2-2--------2-2-2--4-2-0-0--0-0------4-2--------------------------|
D#|--------0-2------------0-2-5----------------------0-2------------------------------|

D#|--0--0------------2-2----------2-2-----------0-0-----------------------------------|
A#|--2--2------------3-3----------3-3-----------2-2-----------------------------------|
F#|--2--2------------4-4----------4-4-----------2-2-----------------------------------|
C#|--2--2------------4-4----------4-4-----------2-2-----------------------------------|
G#|--0--0------4-2---2-2--------2-2-2--4-2-0-0--0-0--/9-7-4-2-0-----------------------|
D#|--------0-2------------0-2-5-------------------------------------------------------|

D#|--0--0------------2-2----------2-2-----------0-0-----------------------------------|
A#|--2--2------------3-3----------3-3-----------2-2-----------------------------------|
F#|--2--2------------4-4----------4-4-----------2-2-----------------------------------|
C#|--2--2------------4-4----------4-4-----------2-2-----------------------------------|
G#|--0--0------4-2---2-2--------2-2-2--4-2-0-0--0-0------4-2--------------------------|
D#|--------0-2------------0-2-5----------------------0-2------------------------------|

D#|--0--0------------2-2----------2-2-----------0-0----------0-0----------------------|
A#|--2--2------------3-3----------3-3-----------2-2----------2-2----------------------|
F#|--2--2------------4-4----------4-4-----------2-2----------2-2----------------------|
C#|--2--2------------4-4----------4-4-----------2-2----------2-2----------------------|
G#|--0--0------4-2---2-2--------2-2-2--4-2-0-0--0-0------4-2-0-0----------------------|
D#|--------0-2------------0-2-5----------------------0-2------------------------------|


Chorus:

D#|--12--10--9--7--9--9---9--9---9---9---5-5--5-5--7-9-7--5-5-----------3-3-----------|
A#|---8--8---8--8--10-10--10-10--10--10--7-7--4-4--6-6-6--2-2-----------4-4-----------|
F#|---9--9---9--9--11-11--11-11--11--11--7-7--7-7--7-7-7--2-2-----------5-5-----------|
C#|----------------11-11--11-11--11--11--7-7--7-7---------2-2-----------5-5-----------|
G#|----------------9--9---8--8---7---7---5-5--5-5---------0-0------4-2--3-3-----------|
D#|------------------------------------------------------------0-2--------------------|

D#|----------2-2-----------0-0----------0-0---------