Tag: so

I Like You So Much Youll Know It piano chords by Ysabelle Cuevas

[Intro]
G A F#m Bm Em A D

[Verse 1]
              D                           Bm
I like your eyes, you look away when you pretend not to care
              Em                          A
I like the dimples on the corners of the smile that you wear
              F#m                        Bm
I like you more, the world may know but don't be scared
              Em                       A
Coz I'm falling deeper, baby be prepared

               D                         Bm
I like your shirt, I like your fingers, love the way that you smell
              Em                         A
to be your favorite jacket, just so I could always be near
              F#m                         Bm
I loved you for so long, sometimes it's hard to bear
               Em                        A
But after all this time, I hope you wait and see

[Chorus]
D                      A
Love you every minute, every second
Bm                     F#m
Love you everywhere and any moment
G                      D
Always and forever I know I can't quit you
Em                     A
Coz baby you're the one, I don't know how
D                      A
Love you til the last of snow disappears
Bm                     F#m
Love you til a rainy day becomes clear
G                      D
Never knew a love like this, now I can't let go
Em                     A
I'm in love with you, and now you know

              D                      Bm
I like the way you try so hard when you play ball with your friends,
              Em                     A
I like the way you hit the notes, in every song you're shining
             F#m                   Bm
I love the little things, like when you're unaware
              Em                   A
I catch you steal a glance and smile so perfectly

[Bridge]
Em                    A
Though sometimes when life brings me down
F#m                    Bm
You're the cure my love
G
In a bad rainy day
Em                        A
You take all the worries away

[Chorus]
D                      A
Love you every minute, every second
Bm                 F#m
Love you everywhere and any moment
G                  D
Always and forever I know I can't quit you
Em                  A
Coz baby you're the one, I don't know how
D                   A
In a world devoid of life, you bring color
Bm                 F#m
In your eyes I see the light, my future
G                  D
Always and forever with you, now I can't let you go
Em                A                  D
I'm in love with you, and now you know

[Outro]
Em A

A Love So Beautiful piano chords by Ysabelle Cuevas

[Verse]

             Eb
I like your eyes, you look away
            Cm
when you pretend not to care
            Fm
I like the dimples on the corners
        Bb
of the smile that you wear
            Gm
I like you more the world may know
      C
but don't be scared
            Fm
'cause I'm falling deeper,
     Bb
baby be prepared

            Eb
I like you shirt, I like your fingers,
         Cm
love the way that you smell
            Fm
to be your favorite jacket
                 Bb
just so I could always be near
                Gm
I've loved you for so long
               C
sometimes it's hard to bear
           Fm
But after all this time,
            Bb
I hope you wait and see


[Chorus]

 Eb                     Bb
Love you every minute, every second
 Cm                      Gm
Love you everywhere, and any moment
 Ab
Always and forever,
Bb
I know, I can't quit you 'cause
Fm
baby you're the one.
Bb
I don't know how...
   Eb                        Bb
I love you 'til the last of snow disappears
   Cm                    Gm
I love you 'til a rainy day becomes clear
 Ab                     Eb
Never know a love like this,

now I can't let go
Fm                     Bb             Eb
I'm in love with you, and now you know
 

Told You So Piano Chords by Paramore

[Verse 1]

          Bb
For all I know
Dm                          Bb              Dm            
   The best is over and the worst is yet to come
       Bb                                
Is it enough
Dm                            Bb              Dm 
   To keep on hoping when the rest have given up, and they go

Bb  Gm           Dm
       I hate to -- say I told you so
Bb  Gm                  Dm                 (Bb)
       But they love to -- say they told me so
Bb  Gm           Dm
       I hate to -- say I told you so
Bb  Gm              Dm
       They love to -- say they told me 


[Post-Chorus 1]

Bb  Gm  Dm
                         Bb  Gm  Dm
Say, they say, they told me
                         Bb  Gm  Dm
Say, they say, they told me
                               Bb  Gm  Dm
Well you say, you say you told me

[Verse 2]

           Bb
I know you like
Dm                         Bb                 Dm
   When I admit that I was wrong and you were right
           Bb
At least I try
Dm                           Bb            Dm     
   To keep my cool when I am thrown into a fire, and they go


[Chorus 2]

Bb  Gm           Dm
       I hate to -- say I told you so
Bb  Gm                  Dm                 (Bb)
       But they love to -- say they told me so
Bb  Gm           Dm
       I hate to -- say I told you so
Bb  Gm              Dm
       They love to -- say they told me 


[Post-Chorus 2]

Bb  Gm  Dm
                         Bb  Gm  Dm
Say, they say, they told me
                         Bb  Gm  Dm
Say, they say, they told me
                               Bb  Gm  Dm
Well you say, you say you told me


[Bridge]

C 
   Throw me into the fire, throw me and pull me out again
Dm
   Throw me into the fire, throw me and pull me out again
C 
   Throw me into the fire, throw me and pull me out again
Dm
   Throw me into the fire, throw me and pull me out again
C 
   Throw me into the fire, throw me and pull me out again
Dm
   Throw me into the fire, throw me and pull me out again
C 
   Throw me into the fire, throw me and pull me out again
Dm
   Throw me into the fire, throw me and pull me out again
N.C.
   Throw me into the fire, throw me and pull me out again

Bb  Gm  Dm
Bb  Gm  Dm
Bb  Gm  Dm
Bb  Gm  Dm


[Chorus 3]

Bb  Gm           Dm
       I hate to -- say I told you so
Bb  Gm                  Dm                 (Bb)
       But they love to -- say they told me so
Bb  Gm           Dm
       I hate to -- say I told you so
Bb  Gm              Dm
       They love to -- say they told me 


[Post-Chorus 3]

Bb  Gm  Dm
                         Bb  Gm  Dm
Say, they say, they told me
                         Bb  Gm  Dm
Say, they say, they told me
                               Bb  Gm  Dm
Well you say, you say you told me

Told You So Chords by Paramore

[Verse 1]
          Bb
For all I know
Dm                        Bb                Dm
 The best is over and the worst is yet to come
       Bb
Is it enough
Dm                          Bb                Dm
 To keep on hoping when the rest have given up

And they go


[Chorus]
Bb        Dm
 I hate to say I told you so
F                C
 But they love to say they told me so
Bb        Dm
 I hate to say I told you so
F            C
 They love to say they told me

[Post-Chorus]
Dm
  Say they say they told me
Dm
  Say they say they told me
Dm
  You say, you say you told me

[Interlude]
Bb Dm
Bb Dm

[Verse 2]
           Bb
I know you like
Dm                       Bb                 Dm
 When I admit that I was wrong and you were right
           Bb
At least I try
Dm                        Bb            Dm
 To keep my cool when I'm thrown into a fire

And they go

[Chorus]
Bb        Dm
 I hate to say I told you so
F                C
 But they love to say they told me so
Bb        Dm
 I hate to say I told you so
F            C
 They love to say they told me

[Post-Chorus]
Dm
  Say they say they told me
Dm
  Say they say they told me
Dm
  You say, you say you told me

[Bridge]
C
Throw me into the fire         
                               
Throw me and pull me out again 
Dm                             
Throw me into the fire         
                               
Throw me and pull me out again 
C
Throw me into the fire         
                               
Throw me and pull me out again 
Dm                             
Throw me into the fire         
                               
Throw me and pull me out again
C
Throw me into the fire         
                               
Throw me and pull me out again 
Dm                             
Throw me into the fire         
                               
Throw me and pull me out again
C
Throw me into the fire         
                               
Throw me and pull me out again 
Dm                             
Throw me into the fire         
                               
Throw me and pull me out again

N.C.
Throw me into the fire

Throw me and pull me out again

[Interlude]
Dm Bb
Dm Bb

[Chorus]
Bb        Dm
 I hate to say I told you so
F                C
 But they love to say they told me so
Bb        Dm
 I hate to say I told you so
F            C
 They love to say they told me

[Post-Chorus]
Dm
Say they say they told me
Dm
Say they say they told me
Dm
You say, you say you told me

[Outro]
Bb Dm

So Many Faces chords – Bernhoft

 -------------------------------------------------------------------------------
                             SO MANY FACES - Bernhoft
-------------------------------------------------------------------------------
: c0nk3r
Tuning: Standard

Capo on 1st fret

Intro:
 Am7 F D7 Am7 F 
In this city, there are so many faces you can go insane
                          D7 
I'm still so lonely, I'm about about to faint
      Am7 
And I don't faint easily
                  F 
Absurdities give my head the freeze
    D7 
So crowded, still I'm on my own
I'm on my own
I didn't know I could be so alone
I'm on my own in here, I...


           Am7 F 
I got the big city blues, I don't wanna stick around
        D7 
And I know that she knows
      Am7 F 
This here is all concrete, and I miss my little town
        D7 
And I know that she knows
She knows


 Am7 F D7 Am7 
I'm sorry, but these are twists of a mind in a social frost
              F D7 
Just give me seven seconds to gather my thoughts
    Am7 F 
It seems we're dealing solely with a social consciousness
                D7 
I got no other shoulder to cry on but my own
No other but my own
Please won't you bring me back home
I miss my home, oh


           Am7 F 
I got the big city blues, I don't wanna stick around
        D7 
And I know that she knows
      Am7 F 
This here is all concrete, and I miss my little town
        D7 
And I know that she knows
2x
She knows


(Just muted strings here if you want, nothing is played)
It takes so many faces to fill me up
I'm way past the brim of this here cup
Ain't got no one to talk to, no one to hear me out
No one to do nothing but to be there


           Am7 F 
I got the big city blues, I don't wanna stick around
        D7 
And I know that she knows
      Am7 F 
This here is all concrete, and I miss my little town
        D7 
And I know that she knows
2x
She knows


 Am7 F D7 Am7 F 
I miss the houses, I miss the street
   D7 
I miss all the people that greet me with a smile

World So Cold Tabs – Ill Nino

 Intro

-------------------------------------------------------------|
-------------------------------------------------------------|
----------------7-----------------------------8-----8/5------|
-0-----------------------------0-----------------------------|
-0---0--0-0--0--5---0--0-0--0--0---0--0-0--0--6--0--6/3------|
-0---0--0-0--0------0--0-0--0--0---0--0-0--0-----0-----------|    X4


-------------------------------------------------------------|
-------------------------------------------------------------|
-------------------------------------------------------------|
-0-0----x-0-0-----x-0-0-----x-0-0-0--------------------------|
-0-0----x-0-0-----x-0-0-----x-0-0-0--------------------------|
-0-0----x-0-0-----x-0-0-----x-0-0-0--------------------------|    X4

Verse

-------------------------------------------------------------|
-------------------------------------------------------------|
-------------------------------------------------------------|
-------------------------------------------------------------|
-0-0-0-0-0---0-0-0-0-0--------1-1--1-1-----------------------|
-0-0-0-0-0---0-0-0-0-0--------1-1--1-1-----------------------|    X3

-------------------------------------------------------------|
-------------------------------------------------------------|
-15-15-15-15-15-15-15-15-14-14-14-14-14-14-14-14-------------|
-12-12-12-12-12-12-12-12-11-11-11-11-11-11-11-11-------------|
-------------------------------------------------------------|
-------------------------------------------------------------|


Chorus

-------------------------------------------------------------|
-3-----------------------------------------------------------|
-2-----------------------------------------------------------|
-0----3----7----8-8-8-8-7-7-7--------------------------------|
-0----3----7----8-8-8-8-7-7-7--------------------------------|
-0----3----7----8-8-8-8-7-7-7--------------------------------|    X2

Youre So Beautiful chords – Terrance Howard

 You're So Beautiful
[Empire Cast]


[Verse 1]

 Am Fmaj 
Sometimes you feel insecure
                 C E7 
Trust me girl I understand
 Am Fmaj 
But even with no manicure
                 C E7 
Baby girl I'll hold your hand
 Am 
You look so good when you walking by
 Fmaj C 
Sexy comes in every size keep wearing that
 E7 
You ain't playing
 Am Fmaj 
You got yourself a new man no need no workout plan
             C 
I call that baby fat
 E7 
But it sure look good to me, see...

[Hook]
 Am Fmaj C G 
You're so beautiful
 E7 
(You got me watching you
Like a camera do)
 Am Fmaj C G 
I still wait for you
You got me (In all kind of always) x2


[Verse 2]
 Am Fmaj 
You wear your glasses you can't see
                  C E7 
Girl I love your crooked smile
 Am Fmaj 
Hair ain't done you're makeup free
                 C 
You'll never go out of style
 E7 
Cause you ain't got time to pack
 Am 
You look too good to be mad
 Fmaj C    
Got way too much class all up inside
Them jeans
 E7 
You should be happy with a nappy
 Am 
Hot damn have you seen them thighs
 Fmaj 
You been all up inside
 C 
The cornbread and collard greens
          E7 
You call me papi
And I like it wild

[Hook]

[Bridge]
 Am C 
This the kind of song make a woman love a man
 G 
A woman love a man
 D 
A woman love a man now
 Am C 
This the kind of song make a woman love a man
 G 
A woman love a man
 D 
Adam and Eve and Clan

 Am Fmaj 
This the kind of song make a woman love a man
 C 
A woman love a man
 E7 
A woman love a man this this
 Am Fmaj 
This the kind of song make a woman love a man
 C 
A woman love a man
 E7 
Adam and Eve and Clan

 Am Fmaj G C

I Get So Mad At Me chords – Webb Pierce

 G C G D7 
I get so mad at me  ever time I see you out with him

          C D7 G 
I get so mad at me for letting you go


                  Em C 
I must have been crazy out of my mind

              G D7 
Oh how could anyone ever be so blind

 G C G D7 
I get so mad at me  ever time I see you kissing him

          C D7 G 
I get so mad at me for letting you go


                  Em C 
I must have been crazy out of my mind

              G D7 
Oh how could anyone ever be so blind

 G C G D7 
I get so mad at me  ever time I see you kissing him

          C D7 G 
I get so mad at me for letting you go


     D7 G D7 G 
For letting you go for letting you go

So Beautiful chords – Ungu

 
[Intro]  E F#m C#m A E F#m C#m B E F#m 
Tak pernah ku sesali dalam hidupku
   C#m A 
akhirnya kau yang pantas ku katakan
       E F#m C#m B 
ku cinta kau sepenuh hati dalam jiwaku

     E F#m C#m 
Kau pemberian Tuhan yang
      B E F#m C#m B 
terindah di hidupku, oh.. oo.. o..

[Intro]  E F#m C#m B E F#m 
Tak pernah ku coba melupakanmu
   C#m A 
walaupun sedetik saja ku takkan
        E F#m C#m B 
pernah bisa tak bersamamu lalui waktuku

     E F#m C#m 
Kau pemberian Tuhan yang
      B E F#m C#m A 
terindah di hidupku, oh.. oo.. o..

[Chorus]
   E F#m 
I love.. you more than
 C#m A 
anything in this world
   E F#m C#m A 
i love.. you, huo.. oo..

   E F#m 
I love.. you more than
 C#m A 
anything in this world
   E F#m C#m A 
i love.. you, huo.. oo..

       E F#m 
You're so beautiful, so beautiful
 C#m A 
 so beautiful, i love you

[Intro]  E F#m C#m A E F#m C#m A E F#m C#m B 
I love.. you
   E F#m C#m A 
I love.. you

[Chorus]
   E F#m 
I love.. you more than
 C#m A 
anything in this world
   E F#m C#m A 
i love.. you, huo.. oo..

   E F#m 
I love.. you more than
 C#m A 
anything in this world
   E F#m C#m A 
i love.. you, huo.. oo..

 E F#m 
You're so beautiful, so beautiful
 C#m A 
 so beautiful, i love you

 E F#m 
You're so beautiful, so beautiful
 C#m A E 
 so beautiful, i love you

So What chords – Librarians

 Capo 4th fret

     C 
So what
              F Am 
You fall in love with everyone, so what
            C 
What's the use
            F Am 
When your time don't cost anything, what's the use
Love ain't that loose

      G 
The simplest things bring a tear to your eye
It's easy to laugh, you at least gotta try

                          F Am 
I wanna know that I can call your name to make everything cool
                   G7 Am 
And that you're always there when I need someone to talk to
         F Am 
About whatever it is that's got me down
                   G7 Am 
And if there's anything good out there waiting to be found

     C 
So what
              F Am 
You fall in love with everyone, so what
            C 
What's the use
            F Am 
When your time don't cost anything, what's the use
Love ain't that loose

         G 
Like a universe without surprise
Where nobody lives and nobody dies

           F Am 
I wanna call your name to make everything cool
                   G7 Am 
And that you're always there when I need someone to talk to
         F Am 
About whatever it is that's got me down
                   G7 Am 
And if there's anything good out there waiting to be found

Loro Tabs by The Story So Far V2

 -------------------------------------------------------------------------------
                   Loro - The Story So Far (Pinback Cover)
-------------------------------------------------------------------------------
: violentboy1996
 tomkow96

Tuning: Standard

First Guitar 
e|---------------------------------------------------------------------------|
B|---------------------------------------------------------------------------|
G|---5---5---5---5-----------------------------------------------------------|
D|-------------------8---8---8---8----6---6---6---6---8---8---8---8----------|
A|-6---6---6---6---6---6---6---6----6---6---6---6---6---6---6---6------------|
E|---------------------------------------------------------------------------|

e|---------------------------------------------------------------------------|
B|---------------------------------------------------------------------------|
G|---------------------------------------------------------------------------|
D|---5---5---5---5---5---5---5---5---5---5---5---5---5---5---5---5-----------| (Repeat through entire song)
A|-6---6---6---6---6---6---6---6---6---6---6---6---6---6---6---6-------------|
E|---------------------------------------------------------------------------|

Second Guitar
e|---------------------------------------------------------------------------|
B|---------------------------------------------------------------------------|
G|-----8----8----8----8---8---8---8---8---8---8---8---8---8---8---8---8------|
D|--10---10---10---10---8---8---8---8---6---6---6---6---8---8---8---8--------|
A|---------------------------------------------------------------------------|
E|---------------------------------------------------------------------------|

e|---------------------------------------------------------------------------|
B|-8---8---8---8h9-8----------------8---8---8---8h9-8------------------------|
G|---8---8---8-------8----8---8---8---8---8---8-------8---8---8---8--------- |
D|----------------------8---8---8-----------------------8---8---8------------|
A|---------------------------------------------------------------------------|
E|---------------------------------------------------------------------------|

 ear, hope this helps. 



************************************
| h   hammer-on
************************************

Bad Luck Tabs – The Story So Far

 -------------------------------------------------------------------------------
                             Bad Luck - The Story So Far
-------------------------------------------------------------------------------
First tab, let me know how it is.
This is only the rhythm guitar, I don't know the lead. If you want that you can look at 
poppunkguitarcovers on youtube, he tabs all his covers and puts links to them in the descriptions. His tab
helped me with correcting and the parts I couldn't quite figure out(strumming of the bridge), so props to 
him.

TUNING: Half-Step Down     / - slide
                           • - palm mute


Intro:
e|---------------------------------------------------------------------------|
B|---------------------------------------------------------------------------|
G|-------------------2-2-----------------------------------------------------|
D|-5-5---5-5---2-2---2-2-----------------------------------------------------|(x3)
A|-5-5---5-5---2-2---0-0-----------------------------------------------------|
E|-3-3---3-3---0-0-----------------------------------------------------------|

e|---------------------------------------------------------------------------|
B|---------------------------------------------------------------------------|
G|---------------------------------------------------------------------------|
D|-5-5---5-5---2-2---55555---------------------------------------------------|
A|-5-5---5-5---2-2---55555---------------------------------------------------|
E|-3-3---3-3---0-0---33333---------------------------------------------------|
                      • •
Verse 1:
e|---------------------------------------------------------------------------|
B|---------------------------------------------------------------------------|
G|---------------------------------------------------------------------------|
D|-5-5-5-5-5-5-5-5-5-5-5-5-5-5-5-5-5-5-5-5-5-7-7-7---------------------------|(x4)
A|-5-5-5-5-5-5-5-5-5-5-5-5-5-5-5-5-5-5-5-5-5-7-7-7---------------------------|
E|-3-3-3-3-3-3-3-3-3-3-3-3-3-3-3-3-3-3-3-3-3-5-5-5---------------------------|
         • • •       • • •       • • •
e|---------------------------------------------------------------------------|
B|---------------------------------------------------------------------------|
G|---------------------------------------------------------------------------|
D|-4-------4-----------------------------------------------------------------|
A|-2-------1-------4-------7-------------------------------------------------|
E|-----------------2-------5-------------------------------------------------|

Chorus:
e|---------------------------------------------------------------------------|
B|---------------------------------------------------------------------------|
G|---------------------------------------------------------------------------|
D|-5-5-5-5-5-5-5-5-7-7-7-7-7-7-7-7-------------------------------------------|
A|-5-5-5-5-5-5-5-5-5-5-5-5-5-5-5-5-------------------------------------------|
E|-3-3-3-3-3-3-3-3-3-3-3-3-3-3-3-3-------------------------------------------|
                   (if you can't reach the seventh fret and stay on the
                    third fret then you can play D|-7-| it still sounds good)
                                                 A|-7-|
                                                 E|-5-|
e|---------------------------------------------------------------------------|
B|---------------------------------------------------------------------------|
G|---------------------------------------------------------------------------|
D|-4-4-4-4-4-4-4-4-----------------------------------------------------------|
A|-2-2-2-2-1-1-1-1-4-4-4-4-7-7-7-7-------------------------------------------|
E|-----------------2-2-2-2-5-5-5-5-------------------------------------------|

e|---------------------------------------------------------------------------|
B|-----------------------------------------

So Long chords – Connor Byers

 Bm G D A 
It's gonna be so so long (so long)
                   Bm G D A 
But it's gonna be so so long (so long)
               Bm G    
It's gonna be you turn back, i'ma turn back
  D A 
I'ma get my life on track
               Bm G D A 
It's gonna be so so long (so long)


 Bm G 
Everyone’s just trying to be who they wanna be
     D A 
And after a while we all get caught up in this mystery
    Bm G 
Im hustling every day doing what I wanna
 D A 
Chasing down a dream tryna be the next Madonna
      Bm G 
But, Don’t you worry girl I'll never forget about you
 D A 
Out here in the world, man, I tried to make do
 Bm G 
I needed you here, I really wanted you back
 D A 
Even as I stood here, recording this track
       Bm G 
I was spending every day talking to you on the phone
       D A 
Tryna listen to your voice so I wouldn’t be alone
         Bm G 
But, it wasn’t the same, I wished you were here
       D A 
Every night I must’ve shed a thousand tears
       Bm G 
Every time I lay down, I can feel your heart beat
      D A 
And when I get in bed i feel so incomplete
      Bm G 
I’ve seen a million girls but your all i desire
     D A 
You know I tell the truth, i ain't no liar


               Bm G D A 
It's gonna be so so long (so long)
                   Bm G D A 
But it's gonna be so so long (so long)
               Bm G    
It's gonna be you turn back, i'ma turn back
  D A 
I'ma get my life on track
               Bm G D A 
It's gonna be so so long (so long)

       Bm G  
Every day were drifting farther and farther apart
   D A 
I don’t want to leave you with a broken heart
        Bm G 
So I’m trying my best, I’m trying to get home
         D A 
But I’m just one guy, I’m doing this on my own
        Bm G 
I just want you to know that I’m trying my best
      D A 
I’ll never stop, I’ll never be at rest
        Bm G 
Till I get back home and I see your smile
      D A 
'cus you’re the one for me, you're just my style
       Bm G 
Every single night I dream of the day
   D A      
I get back home, and never drive away
         Bm G 
I would knock on your door, you would run to it fast
           D A 
You would run to my arms, “I’m Home at last”
          Bm G 
But it’s just a dream, it was just in my mind
         D G 
I wanna stop, and turn myself on rewind
        Bm G 
To the days when I was back in my town
            D A 
And when I always wore a smile instead of a frown

               Bm G D A 
It's gonna be so so long (so long)
                   Bm G D A 
But it's gonna be so so long (so long)
               Bm G    
It

So Much Love To Give chords – Together

 ----------------------------------------------------------------------
TOGETHER - SO MUCH LOVE TO GIVE
----------------------------------------------------------------------

Note: The original song is in a key that is halfway between F# and G.
I put this one in the key of G to make it easier

Chords: G, D, Bm, Asus4

THERE IS ONLY ONE LINE IN THE SONG.
It repeats for 11 minutes and the intensity (volume, presence of drums, 
sidechain compression, etc) waxes and wanes.
YouTube link: https://www.youtube.com/watch?v=z7Gg0RdEWQk



           G D Bm Asus4 
I've got so much love to give.                   





Note that the rhythm is a little tricky.  "I've got so" is a pickup measure and the 
repeating happens over tied bars.  All the chords except for Bm occur on the upbeat.

So Sad chords – Mickey Newbury

 So Sad

   E G#m 
I waited all that morning to hear her say I love you 
    A B  
So sure I was so certain, it was left unspoken 
 E G#m 
My heart, it was breaking, she turned back the curtain 
          A B 
She said nothing when she left me, she left me so heartbroken and 
 E G#m A B 
So sad    so sad 
So sad so sad 

Yes I waited all that mornin' to hear her say I love you 
In the mornin' light she glistened like a ruby in a stickpin 
Then she whispered something into the wet red-lettered window 
She said nothing she left me so heartbroken 
I was so sad so sad 
So sad so sad 

Shortys in the poolroom Billys in the chute 
Jack is at the track with some old lady with some loot 
Willie sits and wonders at the words he cannot rhyme 
I am not in prison I am only doin' time 
 
     A C#m 
And Blue Eyes died in Vegas when they blew away the Sands 
    F#m E   
And Elvis died in Memphis, boys, they nailed him in one hand 
 A G#m                      
Haley died in Corpus Christi, died without a dime 
 F#m B 
I am dead in Tennessee, they buried me alive 

And I am so sad 
so sad, so sad 
The best I had so sad 
Its what I have 
So sad so sad 

Yes I waited all that morning and so many mornings after 
So many lonely hours staring at the rafters 
Until I would close my eyes and feel you next to me 
But with the sun so sure to come will go my sweetest sleep 
And I am so sad so sad 
So sad, so sad 

It Makes Me So Sad chords – Mickey Newbury

 It Makes Me So Sad

 G G7 C 
It makes me so sad to see you so mad about him, baby
 D7 G 
I once would have done anything for you, baby
                      G7 C Cm 
Then he walked in to your life one day, he took your heart and he threw it away
             D7 G 
It makes me so mad to see you so sad, baby

 G G7 C      / B  / Bb 
I tried to tell you what he was but you would not listen
        A  
Oh the lies in his eyes, in his eyes, how they could glisten,  you would not listen

He walked in to your life one day...


I tried to tell you…

Its So Hard To Say Goodbye To Yesterday chords – Jason Mraz V3

 Jason Mraz – It’s So Hard To Say Goodbye To Yesterday

I felt the previous versions were good, but I also felt something was missing. 
So I added Am and changed G#m to G#, also I tried to put the chords in the correct places according to the song


 E B A E 
How do I say good bye to what we had
 A E E B 
The good times that made us laugh outweigh the bad
                E G# C#m B A 
I thought we'd get to see forever but forever's gone away
         E B A Am E 
It's so hard to say goodbye to yesterday

         E B A Am E 
I don't know where this road is going to lead
          A E E B 
All I know is where we've been and what we have been through
       E G# C#m B A 
If we get to see tomorrow, I hope it's worth all the wait
         E B A Am E 
It's so hard to say goodbye to yesterday

 E G#m C#m B A Am 
And I'll take with me the memories to be my sunshine after the rain
          E B A Am E 
It's so hard to say goodbye to yesterday
                          G#m C#m B A Am 
And I'll take with me the memories to be my sunshine after the rain
          E B A Am E 
It's so hard to say goodbye to yesterday
                          B A Am E 
It's so hard to say goodbye to yesterday



Hope you enjoyed it!

It Would Be So Nice chords – Pink Floyd V2

 Pink Floyd - It Would Be So Nice
song: http://www.youtube.com/watch?v=jlJPqRs0ZLM

CHORUS
 E 
 It would be so nice
 D/E 
 It would be so nice
 C#m/E 
 It would be so nice
    F A 
To meet, sometime

VERSE 1
 D A 
Everybody wakes and in the morning
 D A 
 Hot tea and can't stop yawning
 G D 
Pass the butter please
 D A 
Have you ever read the Daily Standard?
 D A                 
Reading all about the plane that's landed
 G D 
Upside down?

PRE-CHORUS
 Bb A 
And no one knows what I did today
 Bb D 
 There can be no other way
 B7 
 But I would just like to say

CHORUS
 E 
 It would be so nice
 D/E 
 It would be so nice
 C#m/E 
 It would be so nice
    F 
To meet, sometime
 E 
 It would be so nice (It would be so)
 D/E 
 It would be so nice (nice, be so)
 C#m/E 
 It would be so nice (nice, be so)
    F A 
To meet, sometime (nice)

VERSE 2
 D A 
Everybody cares about the weather
     D A 
And everybody should know better
 G D 
What a waste of time
 D A 
Everybody lives beneath the ceiling
 D A 
Living out a dream that sends them reeling
 G D 
To a distant place

PRE-CHORUS
 Bb A 
And no one knows what I did today
 Bb D 
 There can be no other way
 B7 
 But I would just like to say

CHORUS
 E 
 It would be so nice (It would be so)
 D/E 
 It would be so nice (nice, be so)
 C#m/E 
 It would be so nice (nice, be so)
    F 
To meet, sometime (nice)

OUTRO CHORUS (2x, until fade out)
 E 
 It would be so nice (It would be so)
 D/E 
 It would be so nice (nice, be so)
 C#m/E 
 It would be so nice (nice, be so)
    G# 
To meet, sometime

So Schmerzt Der Winter chords – 4 Promille

 Intro:  Em  /  C  /  Em  /  C  /  Em  /  C  /  G  /  D  [2x]
        Em  /  C  /  G  /  D  [4x]

Strophe 1:  Em  /  C  /  G  /  D 

Ein feuchter Morgen, 6 Uhr 15,
grauer Nebel liegt in der Luft.
Ein eisiger Wind bringt von Osten
aus einer warmen Küche Kaffeeduft.

Strophe 2:  Em  /  C  /  G  /  D 

Steife Glieder recken sich,
den kalten Tau, den kalten Tau noch im Gesicht.
ein eisiger Kuss, wie ein Schlag,
so beginnt, so beginnt ein neuer Tag

Kehrreim:  Em  /  C  /  G  /  D 

So schmerzt der Winter, so schmerzt der Winter, so schmerzt der Winter.

Strophe 3:  Em  /  C  /  G  /  D 

Trocknes Brot, schimmlige Reste,
lassen den Hunger, den Hunger kaum vergehen.
Der starke Schnaps hilft noch am besten,
lässt einen andre, andre Dinge sehn.

Strophe 4:  Em  /  C  /  G  /  D 

Die Kälte kriecht tief in die Knochen,
laut im Schädel ein dumpfes Pochen.
Ein stummer Schmerz, ein tiefer Zug,
für ein wenig, ein wenig Mut.

Kehrreim:  Em  /  C  /  G  /  D 

So schmerzt der Winter, so schmerzt der Winter, so schmerzt der Winter.

So schmerzt der Winter, so schmerzt der Winter, so schmerzt der Winter,
so schmerzt der Winter, so schmerzt der Winter.

Make Me So chords – Yellowcard

 -----------------------------------------------------------------------------
                  Make Me So - Yellowcard
-----------------------------------------------------------------------------
Tabbed By: Fabio BlenderBR
 - Give your rating and help others users to find the best versions of the songs -


Intro:
 Am F C       (2x)


Verse:
         Am Fm 
Turn around before you go
                    Gm Fm 
The look in your eyes is letting me know
    Am Fm 
I hear you breathing out
               Gm Fm 
My house of cards is coming down
     Am Fm 
I thought we were alive
                 Gm Fm 
Thought it was like when the planets align
       Am Fm 
You dream of some better place
              Gm Fm 
Some better love with some better name


Chorus:
 Am F C 
Why, why do you make me so?
 Am F C 
Why, why do you let me go?


Verse:
         Am Fm 
Close calls, hang by a thread
                 Gm Fm 
I never could forget what you said
       Am Fm 
Too late, don't wanna be saved
                 Gm Fm 
These are the choices that we've gotta make
                Am Fm 
Truth is the world's gonna spin
                  Gm Fm 
With or without you, again and again
 Am Fm Gm Fm 
If I ever escape, I'm gonna love and give it a name


Chorus: 
 Am F C 
Why, why do you make me so?
 Am F C 
Why, why do you let me go?
 Am F C 
Why do I lose my head? You make me so
 Am F C 
Why do I lose myself? You let me go


Bridge:
 Am Gm    (8x)

      Am Fm 
You dream of some better place
              Gm Fm 
Some better love, or some better name
 Am Fm Gm Fm 
If I ever escape, I'm gonna love and give it a name


Chorus: 
 Am F C 
Why, why do you make me so?
 Am F C 
Why, why do you let me go?
 Am F C 
Why do I lose my head? You make me so
 Am F C 
Why do I lose myself? You let me go

 Am F C 
Why, why do you make me so?
 Am F C 
Why, why do you let me go?