Tag: social

Sunday Candy chords – Donnie Trumpet And The Social Experiment Vsion 4

 This riff is the same for the entire song. There are probably some minor differences between the verses and
chorus, but I've found this to be pretty accurate. The barre chord version sounds better than open chords 
in my opinion, but they open chords also work great if you're not as comfortable with barring. Enjoy!


Barre Chord Version
     Cmaj7 Cmaj7/B Am7 Gm7 C7 Fmaj7 C Dm7 G 
e |---x--------x-------5------3------3------0------0------5------3----|
B |---x--------x-------5------3------5------1------1------6------3----|
G |---9--------9-------5------3------3------2------0------5------4----|
D |---10-------10------5------3------5------3------2------7------5----|
A |---10-------10------7------5------3------0------3------5------5----|
E |---8--------7-------5------3------3------0------x------5------3----|

Open Chord Version
       C C/B Am7 Gm7 C7 Fmaj7 C Dm7 G 
e |---0--------0-------0------0------0------0------0------1------3----|
B |---1--------1-------1------3------1------1------1------1------0----|
G |---2--------0-------0------0------3------2------0------2------0----|
D |---0--------2-------2------3------2------3------2------0------0----|
A |---3--------2-------0------1------3------0------3------0------2----|
E |---x--------0-------0------3------0------0------x------x------3----|

NOTE: For open chord version, just replace all Cmaj7 with C and replace all Cmaj7/B with C/B.

----------------------------------------------------------------------------------------------

INTRO:
 Cmaj7 Cmaj7/B Am7 Gm7 C7 Fmaj7 C Dm7 G 

VERSE:
 Cmaj7 Cmaj7/B Am7 Gm7 
She could say in her voice, in her way that she love me
          C7 Fmaj7 C Dm7 
With her eyes, with her smile, with her belt, with her hands, with her money
          G 
I am the thesis of her prayers.
     Cmaj7 Cmaj7/B 
Her nieces and her nephews are just pieces of the layers,
      Am7 Gm7 C7 Fmaj7 
Only ones she love as much as me is Jesus Christ and Taylor.
                       C Dm7 
I got a future so I'm singing for my grandma
                           G Cmaj7 
You singing too, but your grandma ain't my grandma!   
                      Cmaj7/B            
Mine's is hand made, pan fried, sun dried
 Am7 Gm7 C7 
Southside, and beat the devil by a landslide.
 Fmaj7 C 
Praying with her hands tied, president of my fan club,
 Dm7 G 
Stand tall, something told me I should bring my butt to church!

HOOK/CHORUS(x2):
                   Cmaj7 
You gotta move it slow-ly,
 Cmaj7 Am7            
Take and eat my body like it's ho-ly.
 Gm7 C7 Fmaj7 
I've been waiting for you for the whole week,
 C Dm7 G 
I've been praying for you, you're my sun-day, can-dy.

BRIDGE:
 Cmaj7 Cmaj7/B Am7 Gm7 C7 
Come on in this house, cause it's gonna rain.
 Fmaj7 C Dm7 G     
Rain down Zion, it's gonna rain.
            Cmaj7 Cmaj7/B Am7 Gm7 C7 
You better come on in this house, cause it's gonna rain.
 Fmaj7 C Dm7 G 
Rain down Zion, it's gonna rain.

VERSE:
   

De Camino A La Vereda Tabs – Buena Vista Social Club

 Props to user: gobels
for having proper chords down
I just added a capo, the main riff on guitar and the trumpet licks to make it complete

-------------------------------------------------------------------------------
              DE CAMINO A LA VEREDA - BUENA VISTA SOCIAL CLUB
-------------------------------------------------------------------------------
: ignaciomendez
 ignacio.mendeznunez

Tuning: Standard
Capo 3rd Fret

Main Riff

   (C)          (F)                (G)         (C)
e|-----------------------------------------1----0----3-----------------------|
B|--------1-----------1---------------0-3----------------1-------------------|
G|-----0--------2--2---------------0-----------------------------------------|
D|--2-------2---3-----------2-3-4--------------------------------------------|
A|--3------------------------------------------------------------------------|
E|---------------------------------3-----------------------------------------|

Variation
   (C)          (F)                (G)         (C)
e|---------------------------------------------------3-3-5-3----(or just 8)--|
B|--------1-----------1---------------0-3----0--1----------------------------|
G|-----0----3---2--2---------------0-----------------------------------------|
D|--2-----------3-----------2-3-4--------------------------------------------|
A|--3------------------------------------------------------------------------|
E|---------------------------------3-----------------------------------------|


Chords with Lyrics

Intro: C F G C x2

Chorus 

C          F              G           C
!Óigame compay! No deje el camino por coger la vereda.   (Sí, Señor.)
C          F              G           C
!Óigame compay! No deje el camino por coger la vereda.

Verse 1:
C       F
Usted por enamorado
G               C
Tan viejo y con poco brillo
C       F
Usted por enamorado
G               C
Tan viejo y con poco brillo
C       F
El pollo que tiene al lado
G               C
Le ha hecho perder el trilloooooo


Chorus 


Verse 2:
C                F            G
Ay, pero yo como soy tan sencillo
             C
Pongo en claro esta trovada
C                F            G
Ay, pero yo como soy tan sencillo
             C
Pongo en claro esta trovada
C            F            G
Compay, yo no dejo el trillo
     C
 Para meterme en cañadaaaa


Chorus


Verse 3:
Ay, pero estabamo´ comentando
Por qué ha abandonado a Andrea
Ay, pero estabamo´ comentando
Por qué ha abandonado a Andrea
Compadre uste´ ´ta cambiando
De camino por vered

Chorus

C                             F            
Pero mire compadrito, uste´ ha ´dejao´ a la
               G       C
pobre Geraldina para meterse Dorotea.


Chorus

Trumpet Riffs at @2:03 (fast lick below)
e|---------------------------------------------------------------------------|
B|---1-1-1---3-1-0-0--3--1h3p1p0-0----1--------------------------------------|
G|-0--------------------------------2---0------------------------------------|
D|-----------------------------------------2---------------------------------|
A|---------------------------------------------------------------------------|
E|---------------------------------------------------------------------------|

Chorus 

Trumpet Riffs at @2:12 (fast lick below)
e|--------0----------3--0-1------------------------0-------------------------|
B|---1-3-------3-1----------------3--1--0-1p0----0---3-3-1----0--------------|
G|-0--------------------------2--------------2-------------2----0-0-0--------|
D|---------------------------------------------------------------------------|
A|---------------------------------------------------------------------------|
E|---------------------------------------------------------------------------|

Bridge

C
No hables de tu marido mujer.
                     G
Mujer de malos sentimientos,
G
Todo se te ha vuelto un cuento
                               C
Porque no ha llegado la hora fatal.


Chorus

Bridge

Chorus




*

De Camino A La Vereda chords – Buena Vista Social Club V2

 CHORUS:

 D# G# A#7 D# 
!Óigame compay! No deje camino por coger la vereda
 D# G# A#7 D# 
!Óigame compay! No deje camino por coger la vereda

I:

 D# G# 
Usted por enamorado
 A#7 D# 
Tan viejo y con poco brillo
 D# G# 
Usted por enamorado
 A#7 D# 
Tan viejo y con poco brillo
 D# G# 
El pollo que tiene al lado
 A#7 D# 
Le ha hecho perder el trillo

CHORUS:

 D# G# A#7 D# 
!Óigame compay! No deje camino por coger la vereda
 D# G# A#7 D# 
!Óigame compay! No deje camino por coger la vereda

II:

 D# G# 
Ay, pero yo como soy tan sencillo
 A#7 D# 
Pongo en claro esta trovada
 D# G# 
Yo como soy tan sencillo
 A#7 D# 
Pongo en claro esta trovada
 D# G# 
Compay, yo no dejo el trillo
 A#7 D# 
Para meterme en Canadá

CHORUS:

 D# G# A#7 D# 
!Óigame compay! No deje camino por coger la vereda
 D# G# A#7 D# 
!Óigame compay! No deje camino por coger la vereda

III:

 D# G# 
Ay, pero estabamo' comentando
 A#7 D# 
Por que ha abandonado a Andrea
 D# G# 
Estabamo' comentando
 A#7 D# 
Por que ha abandonado a Andrea
 D# G# 
Compadre uste' 'ta cambiando
 A#7 D# 
De camino por vereda

CHORUS:

 D# G# A#7 D# 
!Óigame compay! No deje camino por coger la vereda
 D# G# A#7 D# 
Pero óigame compay! No deje camino por coger la vereda
 D# G# A#7 D# 
!Óigame compay! No deje camino por coger la vereda
 D# G# A#7 D# 
Pero mire compadrito, uste' ha 'dejao' a la
  D# G# A#7 D# 
!Óigame compay! No deje camino por coger la vereda
 D# G# A#7 D# 
Pobre Geraldina para meterse con Dorotea
  D# G# A#7 D# 
!Óigame compay! No deje camino por coger la vereda
  D# G# A#7 D# 
!Óigame compay! No deje camino por coger la vereda
  D# G# A#7 D# 
!Óigame compay! No deje camino por coger la vereda

BRIDGE:

    D# 
No hables de tu marido, mujer
                     A# 
Mujer de malos sentimientos
 A#7 
Todo se te ha vuelto un cuento
                              D# 
Porque no ha llegado la hora fatal

CHORUS:

  D# G# A#7 D# 
!Óigame compay! No deje camino por coger la vereda
  D# G# A#7 D# 
Ay pero óigame compay! No deje camino por coger la vereda
  D# G# A#7 D# 
!Óigame compay! No deje camino por coger la vereda
 D# G# A#7 D# 
Ay ay ay ay, canta y no llore' Eliade'
  D# G# A#7 D# 
!Óigame compay! No deje camino por coger la vereda
  D# G# A#7 D# 
Porque cantando se alegran, cielito mio los corazones
  D# G# A#7 D# 
!Óigame compay! No deje

London Social Degree chords – Billy Nicholls

 Billy Nicholls - London Social Degree
song: https://www.youtube.com/watch?v=Sd_43mm9RaU

INTRO (strum the fifth fret (an A) on the high E string for the intro riff)
 A Asus2  \ 3x
 Asus4 A      /

VERSE 1
 E Am 
Yes I went to school when I was a youngster
    E Am 
But you can keep you maths and GCE's
 E Am 
 I have found a test that makes me think better
          G D A 
It's the London social degree

VERSE 2
 E Am 
 If you pass it and you see a new meaning girl
 E Am 
 You won't have to go to church to believe
 E Am 
 You will see the love that makes you think better
        G D A 
It's a London social degree

CHORUS
 E A 
 Spreading love around the world
                          D 
To everyone who wants to feel love baby
Don't fight baby
 E A 
 Tell your mum and dad and everyone
                        D 
That's thinking bad to stop now baby
Love now baby

VERSE 3
 E Am 
 If you pass it and you see a new meaning girl
 E Am 
 You won't have to go to church to believe
 E Am 
 You will see the love that makes you think better
        G D A 
It's a London social degree

CHORUS
 E A 
 Spreading love around the world
                          D 
To everyone who wants to feel love baby
Don't fight baby
 E A 
 Tell your mum and dad and everyone
                        D 
That's thinking bad to stop now baby
Love now baby

VERSE 3 (same as verse 1)
 E Am 
Yes I went to school when I was a youngster
    E Am 
But you can keep you maths and GCE's
 E Am 
 I have found a test that makes me think better
        G D A 
It's a London social degree
        G D A 
It's a London social degree
        G D A 
It's a London social degree

OUTRO
 A Asus2  \ 4x
 Asus4 A      /

Anthems For A 17 Year Old Girl chords – Broken Social Scene

 Capo 4
Standard Tuning

 F        
Used to be the one of the rotten ones
         C 
And I liked you for that
 F  
Now you're all gone, got your make-up on
             C 
And you're not coming back

 F 
Bleachin' your teeth, smiling flash
 C 
Talking trash, under your breath
 F 
Bleachin' your teeth, smiling flash
 C 
Talking trash, under my window

 F  
Park that car, drop that phone,
 C 
Sleep on the floor, dream about me

 F  
Used to be the one of the rotten ones
          C 
And I liked you for that
 F 
Now you're all gone, got your make-up on
             C 
And you're not coming back

Social Silence Tabs by Washya

 -----------------------------------------------------------------------------
                                Social Silence - Washya
-----------------------------------------------------------------------------
Tuning: Drop B (BF#BEG#C#)
Intro
B|------------------------------------|
F#|-----------------------------------|
B|------------------------------------|
E|------------------------------------|
G#|--------5b*--------------7b*-------|
C#|-00-000-----0h3p0-00-000-----0h3p0-|x3

Part 2
B|----------------------------------------|
F#|---------------------------------------|
B|----------------------------------------|
E|-----------3333---------------5555------|
G#|-55556666------1111/55556666------3333-|
C#|----------------------------------3333-|x3
PM  ******** **** **** ******** **** **** 

Verses
B|-------------|   |---------------|
F#|------------|   |---------------|
B|-------------|   |---------------|
E|--------7/10-|   |---------------|
G#|-5-5/6-5/8--|   |-5-6-8-3-5-6-1-|
C#|-5-5/6------|x3 |-5-6-8-3-5-6-1-|
                  PM * *   * * * 

Chorus
B|-----------------------------------------------------------|
F#|----------------------------------------------------------|
B|-----------------------------------------------------------|
E|--------------------55555555-88888888-----------555--------|
G#|-55555555-11111111-33333333-66666666-66-666666-333-3333/6-|
C#|-55555555-11111111-------------------66-666666-----3333/6-|
PM                                         ******

Solo
B|-----------------------------------------------------------------16---17~-|
F#|-------------------------------------------------------12-13-15---15-----|
B|------------------------------------------------9-11-13-------------------|
E|--------------------7-8-10--------7-8-10-7-8-10---------------------------|
G#|-------5-7-8-5-7-8--------7-8-10-----------------------------------------|
C#|-5-7-8-------------------------------------------------------------------|
PM  * * * * * * 

B|--17-15-14----14h17p14h17p14-------------16-------16--------15-------17~-|
F#|----------15----------------15h17p15p14----17p14----17p14-----14p12-----|
B|-------------------------------------------------------------------------|
E|-------------------------------------------------------------------------|
G#|------------------------------------------------------------------------|
C#|------------------------------------------------------------------------|

Verses
B|-------------|   |---------------|
F#|------------|   |---------------|
B|-------------|   |---------------|
E|--------7/10-|   |---------------|
G#|-5-5/6-5/8--|   |-5-6-8-3-5-6-1-|
C#|-5-5/6------|x3 |-5-6-8-3-5-6-1-|
                  PM * *   * * * 

Chorus
B|-----------------------------------------------------------|
F#|----------------------------------------------------------|
B|-----------------------------------------------------------|
E|--------------------55555555-88888888-----------555--------|
G#|-55555555-11111111-33333333-66666666-66-666666-333-3333/6-|
C#|-55555555-11111111-------------------66-666666-----3333/6-|
PM                                         ******