Tag: Solo

Black And White solo Tabs – Parquet Courts

 Black and White - Parquet Courts
   Sunbathing Animal (2015)
~~~~~~~~~~~~~~~~~~~~~~~~~~~~~~~~

All 3 Verses

"..bold strokes crack..."

e|---------------------|
B|---------------------|
G|---------------------|
D|---------------------|
A|--0~-----------------| let note ring out w/ feedback
E|---------------------|

"..I want something more than..."

e|-------------------------------------------|
B|-------------------------------------------|
G|-------------------------------------------|
D|--------5--4--2----------7--5--4--2~-------| let last note ring out w/ feedback 
A|--5--------------3--3\5--------------------|   (especially on the last verse)
E|-------------------------------------------|


What I could make from the solo;

Starts at about 1:55

e|--------------------------------|
B|--------------------------------|
G|--------------------------------|
D|--------------------------------|
A|--14----12----9---9\10-9/-7~----|
E|--------------------------------|

Dont Threaten Me With A Good Time solo Tabs – Panic! At The Disco Vsion 2

 -------------------------------------------------------------------------------
               DON'T THREATEN ME WITH A GOOD TIME - Panic! At the Disco
-------------------------------------------------------------------------------
: thanic
 ethanrocketman2
Note:  so it might not be 10/10...
Tuning: Standard

Intro riff. 

e|---------------------------------------------------------------------------|
B|---------------------------------------------------------------------------|
G|----------------------6----------------------------------------------------|
D|--------------7676-6------7----------7676--------------------------7676-6--|
A|-----6-76---------------------76--------------------------6-76-------------|
E|--9--------9-----------------------9-------------------9--------9----------|

Rest of the parts with riff.

e|---------------------------------------------------------------------------|
B|---------------------------------------------------------------------------|
G|---------------------------------------------------------------------------|
D|--------------7676-6--------------7676-----------------------------------------|
A|------7-76--------------6-76-----------------------------------------------|
E|--9--------9---------9---------9------------------------------------------|

My Curse solo Tabs – The Afghan Whigs

 -------------------------------------------------------------------------------
                             My CURSE - The Afghan Whigs (Solo)
-------------------------------------------------------------------------------
: Dev Chopra


Tuning: Standard

e|---10-h-12----10-h-12--|-----------------------|---------------------------|
B|---10---------10-------|---10-----12--10--8----|----------------/8---------|
G|-----------------------|-11--11/12--11--9---7--|-------------------7-------|
D|-----------------------|-----------------------|---------------------------|
A|-----------------------|-----------------------|-7-7-7---------------------|
E|-----------------------|-----------------------|---------------------------|
         b 1/4                     b 1/4
e|----------------|-----------------------------|----------------------------|
B|---/12----------|-----------------------------|----------------------------|
G|------11-----12-|--12-11-9------11--------12--|-12-11-h-12-/14-/16--16-----|
D|----------------|----------12-9---------------|---------------------14-----|
A|----------------|-----------------------------|----------------------------|
E|----------------|-----------------------------|----------------------------|
                                               b 1/2 
e|--12-12-h-15-15-|-15-15-14-12----12-10-10-10-----10-10---------------------|
B|--12-12------15-|-15-15-------15-------------11----------------------------|
G|----------------|----------------------------------------------------------|
D|----------------|----------------------------------------------------------|
A|----------------|----------------------------------------------------------|
E|----------------|----------------------------------------------------------|
                   pb 1/4
e|--12-12-15-15-17---17------------------------------------------------------|
B|---------------------------------------------------------------------------|
G|---------------------------------------------------------------------------|
D|---------------------------------------------------------------------------|
A|---------------------------------------------------------------------------|
E|---------------------------------------------------------------------------|




************************************

| /   slide up
| \   slide down
| h   hammer-on
| p   pull-off
| ~   vibrato
| +   harmonic
| x   Mute note
| b   Bend
| pb  Pre-bend
| br  Bend release
| pbr Pre-bend release
| brb Bend release bend

************************************

Lag Ja Gale solo chords – Sanam

 INTRO  Ab Ab Eb 
Lag Ja Gale Ki Phir Ye Hasin Raat Ho Na Ho
 C# Eb C# Ab 
Shaayad Phir Is Janam Men Mulaaqaat Ho Na Ho
 Ab C Fm Ab Eb 
Lag Ja Gale Ki Phir Ye Hasin Raat Ho Na Ho
 C# Eb C# Ab 
Shaayad Phir Is Janam Men Mulaaqaat Ho Na Ho
 Ab 
Lag Ja Gale Ki Phir

 C# Eb Ab C# Eb Ab Ab C# Eb Ab 
Ham Ko Mili Hain Aaj, Ye Ghadiyaan Nasib Se
 Ab C# Eb Ab 
Ji Bhar Ke Dekh Lijiye Ham Ko Qarib Se
 Ab Fm Eb 
Phir Aap Ke Nasib Men Ye Baat Ho Na Ho
 C# Eb C# Ab 
Shaayad Phir Is Janam Men Mulaaqaat Ho Na Ho
 Ab 
Lag Ja Gale Ki Phir

 C# Ab C# F# C# F# Ab Ab C# Eb Ab 
Paas Aaiye Ki Ham Nahin Aaenge Baar-Baar
 Ab C# Eb Ab 
Baahen Gale Men Daal Ke Ham Ro Le Zaar-Zaar
 Ab Fm Eb 
Aankhon Se Phir Ye Pyaar Ki Barasaat Ho Na Ho
 C# Eb C# Ab 
Shaayad Phir Is Janam Men Mulaaqaat Ho Na Ho
 Ab 
Lag Ja Gale Ki Phir

 C# Ab C# Bbm Eb C# Ab Bbm Eb Ab C# Bbm Eb Ab C#

All He Aces solo Tabs – Motörhead

 -------------------------------------------------------------------------------
                        ALL THE ACES - Motörhead
-------------------------------------------------------------------------------
: sezar
 keanu-rimedorf@hotmail.com

Tuning: ½ Step Down


e|-12--12-----------------------------------------------------------------|
B|-15b-15b-15b-15-12h15p12----12h15p12----12------------------------------|
G|-------------------------14----------14----14-12h14p12----12h14p12------|
D|-------------------------------------------------------14----------14---|
A|------------------------------------------------------------------------|
E|------------------------------------------------------------------------|

e|------------------------------------------------------------------------|
B|-------------------15---------------------------------------------------|
G|-12-14-12-14b-14b-----14b--12h14p12----12-14b--12h14p12----12h14p12-----|
D|------------------------------------14------------------14----------14--|
A|------------------------------------------------------------------------|
E|------------------------------------------------------------------------|

e|------------------------------------------------------------------------|
B|-------------------------------------------------10---------------------|
G|-12-14-12-11-12-11-9-11-9-7-9-9b--9b-9b-9pbr7-9b----9pbr7-7h9p7---7-----|
D|----------------------------------------------------------------9---9---|
A|------------------------------------------------------------------------|
E|------------------------------------------------------------------------|


e|------------------------------------------------------------------------|
B|----------------------------------10------------------------------------|
G|---------------------7h9p7---7-9b----9pbr7---7h9p7---7~/----------------|
D|-5---5-5h7p5---5h7/9-------9---------------9-------9--------------------|
A|---7---------7----------------------------------------------------------|
E|------------------------------------------------------------------------|

1:56

e|---------------------------------------14-----14--------14--------14----|
B|------------------------------------14-----14--------14--------14----16b|
G|-16b-16b-16b-16b-16pbr14-16-14--16b--------------16b-------16b----------|
D|------------------------------------------------------------------------|
A|------------------------------------------------------------------------|
E|------------------------------------------------------------------------|


e|-14----------------------------------------------------------------------|
B|----17-14h17p14----14----------------------------------------------------|
G|----------------16----16-14h16p14----14h16p14----14-16-14-13--11--9------|
D|----------------------------------16----------16-------------------------|
A|-------------------------------------------------------------------------|
E|-------------------------------------------------------------------------|

************************************

| /   slide up
| \   slide down
| h   hammer-on
| p   pull-off
| ~   vibrato
| +   harmonic
| x   Mute note
| b   Bend
| pb  Pre-bend
| br  Bend release
| pbr Pre-bend release
| brb Bend release bend

************************************

Inspire solo Tabs – Polyphia Vsion 1

 -------------------------------------------------------------------------------
                            Polyphia-Inspire
-------------------------------------------------------------------------------
: deadbunny

Tuning: DADGBE

Intro:

e|------------------------------------|------------------|---------------|---|
B|------------------------------------|-6--6--6--6--6--6-|---------------|---|
G|-3--3--3--3--3--3--3--3--3--3--3--3-|-7--7--7--7--7--7-|-5--5--5--5--5-|---| x2
D|-5--5--5--5--5--5--5--5--5--5--5--5-|-8--8--8--8--8--8-|-7--7--7--7--7-|---|
A|-1--1--1--1--1--1--1--1--1--1--1--1-|-5--5--5--5--5--5-|-3--3--3--3--3-|---|
D|-1--1--1--1--1--1--1--1--1--1--1--1-|-5--5--5--5--5--5-|-3--3--3--3--3-|-0-|

Intro Solo:

e|---------------------------|--------------------------------------------|
B|---------------------------|--------------------------------------------|
G|-12/14---------------------|--------------10-12/14-15----------10-12-14-|
D|-------12/15-17------------|------8-10/12-------------12-10-------------|
A|----------------15-13-12\8-|-8-10---------------------------13----------|
D|---------------------------|--------------------------------------------|



************************************

| /   slide up
| \   slide down
| h   hammer-on
| p   pull-off
| ~   vibrato
| +   harmonic
| x   Mute note
| b   Bend
| pb  Pre-bend
| br  Bend release
| pbr Pre-bend release
| brb Bend release bend

************************************

Jamaica Mistaica solo Tabs – Jimmy Buffett

 -------------------------------------------------------------------------------
                             SONG NAME - Band Name
-------------------------------------------------------------------------------
: Michael Henderson
 

This is my first time tabbing anything out as well as my first time learning a solo by ear. Therefore it's
more than likely that I've made a mistake or two. Please don't hesitate to comment or email me if you find
something that isn't quite right! Other than that, enjoy this spectacular guitar solo! 

Tuning: Standard

e|---------------------------------------------------------------------------|
B|-0-2-3-3-3-3-5-7-5----10-8-------------------------------------------------|
G|-0-2-4-4-4-4-6-7-6----11-9-------------------------------------------------|
D|---------------------------------------------------------------------------|
A|---------------------------------------------------------------------------|
E|---------------------------------------------------------------------------|

e|-10-9------------------------------12-14-----------------------------------------------------|
B|------12-10-12---------------------------15--12h14----12-------------------------------------|
G|------------------11\9-----------------------------------14-9h11-9h11-9h11-------------------|
D|-----------------------12-9------------------------------------------------12-11-12----------|
A|---------------------------------------------------------------------------------------9-7-9-|
E|---------------------------------------------------------------------------------------------|

e|-------------15-14-12--------------12-14----------14-12----------12--------------------------|
B|-------12-15--------------15-14-15----------14-15----------12-14---15-----12-15-14-15-12-----|
G|-12-14------------------------------------------------------------------14-------------------|
D|---------------------------------------------------------------------------------------------|
A|---------------------------------------------------------------------------------------------|
E|---------------------------------------------------------------------------------------------|

e|-------------------------------------------------------------------------------------------------------|
B|-15p14-12----17b18-17-15----17b18-17-15----17b18-17-15----17b18-17-15---------15----17----15--------19-|
G|----------------------------------------------------------------------------16----18----------18-16----|
D|-------------------------------------------------------------------------------------------------------|
A|-------------------------------------------------------------------------------------------------------|
E|-------------------------------------------------------------------------------------------------------|



************************************

| /   slide up
| \   slide down
| h   hammer-on
| p   pull-off
| ~   vibrato
| +   harmonic
| x   Mute note
| b   Bend
| pb  Pre-bend
| br  Bend release
| pbr Pre-bend release
| brb Bend release bend

************************************

In Dulci Jubilo solo Tabs – Mike Oldfield Vsion 3

 ---------------------------------------------------------------------------------------------------------------
                                          Artist - Mike Oldfield
                                         ************************
                                          Song - In Dulci Jubilo
                                         ************************
                                           Album - The Complete  
                                          **********************
                                            - Ayreon77
                                          **********************
---------------------------------------------------------------------------------------------------------------
Tuning = Standard

p   = Pull Off
h   = Hammer On
b   = Bend
rb  = Release Bend
rbp = Release Bend Pulloff
br  = Bend Release
brp = Bend Release Pulloff
/   = Slide
UB  = Union Bend



SOLO 1
*******
  Trill........................
     h  p  h  p  h  p  h  p  h  p                             h  h                            
e|-15-17-15-17-15-17-15-17-15-17-15-|-15-13-12-------|15-13-12-13-15-------|-12----12---p------|
B|----------------------------------|----------13----|---------------13----|----15----13-12----|
G|----------------------------------|-------------12-|------------------12-|----------------14-|
D|----------------------------------|----------------|---------------------|-------------------|
A|----------------------------------|----------------|---------------------|-------------------|
E|----------------------------------|----------------|---------------------|-------------------|

     p  p     p             p     h  h                                           p  p
e|-15-13-12-13-12-13----|-15-13-12-13-15---p--h---|------------------h--h---12-15-13-12-|
B|-------------------15-|----------------13-12-13-|---p--------h---12-13-15-------------|
G|----------------------|-------------------------|-14-12----12-14----------------------|
D|----------------------|-------------------------|-------15----------------------------|
A|----------------------|-------------------------|-------------------------------------|
E|----------------------|-------------------------|-------------------------------------|

     p                   h  h                                             p  p
e|-13-12-13----|-15-13-12-13-15-|---p------|------------------h--h---12-15-13-12-|
B|----------15-|----------------|-13-12-13-|---p--------h---12-13-15-------------|
G|-------------|----------------|----------|-14-12----12-14----------------------|
D|-------------|----------------|----------|-------15----------------------------|
A|-------------|----------------|----------|-------------------------------------|
E|-------------|----------------|----------|-------------------------------------|

     h  p                                      s               s       brp     brp             
e|-12-13-12---p--p---|----12---s-|-s---15----15\-|-s---20----20\-|-22-22--20--22--20-17-20---s-|
B|----------15-13-12-|-13----13\-|-\17----17-----|-\20----20-----|-------------------------20\-|
G|-------------------|-----------|---------------|---------------|-----------------------------|
D|-------------------|-----------|---------------|---------------|-----------------------------|
A|-------------------|-----------|---------------|---------------|-----------------------------|
E|-------------------|-----------|---------------|---------------|-----------------------------|

01:46                                                                                      p  p
e|-12----12---h--p------h--p---------|---h--h------12-------|------------------h--h---12-15-13-12-|
B|----15----13-15-13--12-13-12---h---|-12-13-15-13-------13-|---p--------h---12-13-15-------------|
G|-----------------------------14-16-|----------------12----|-14-12----12-14----------------------|
D|-----------------------------------|------------------

Time For You To Go solo Tabs – Sum 41 Vsion 1

 -------------------------------------------------------------------------------
                          Time For You To Go - SUM41
-------------------------------------------------------------------------------
: Oz Sabbag
 thespammail9000

Tuning: standard
************************************

| br = Bend release

************************************
e|-----------------------------------------------------------------------------------|
B|-----------------------------------------------------------------------------------|
G|-9--9-9-9-9-9br--7--------7----7br-----------7--9-7--------------------------------|
D|-------------------9-9--9---9-------9--7-9-9--------9---9--------------------------|
A|-----------------------------------------------------------------------------------|
E|-----------------------------------------------------------------------------------|

e|-----------------------------------------------------------------------------------|
B|-----------------------------------------------------------------------------------|
G|-----------7-7-9-7---7--7-----------------9~~9~9~~11~~11~11~~13~~13~13~~14~~14~14~~|
D|-----7-7-9---------9--------9-7----------------------------------------------------|
A|-7-9----------------------------9--------------------------------------------------|
E|----------------------------------7~~7~7~~-----------------------------------------|

Jessies Girl solo Tabs – Rick Springfield V3

 Solo transcribed from PapastachePop: 


Stave 1:

E|--------------------------12----------10--9------10--------------------------
B|------------------------------12--10---------10------10b---17b19--20--19r17--
G|--7--7--7--7--7--7--7--7-----------------------------------------------------
D|-----------------------------------------------------------------------------
A|-----------------------------------------------------------------------------
E|-----------------------------------------------------------------------------

Stave 2:

E|------------------------------------------------14--12--10—-7/9\7-----15--14--12------12----
B|--15------------------15--------------------------------------------------------15------15--
G|------16--15--14--14------16--15--14-----11/14--14--12—-11—-7/9\7---------------------------
D|--------------------------------------------------------------------------------------------
A|--------------------------------------------------------------------------------------------
E|--------------------------------------------------------------------------------------------

Stave 3:

E|--------------9--------------------10--10--10--10--
B|------10--12-----10-----8--10--12--10--10--10--10--
G|-/11--------------------7--9---12------------------
D|---------------------------------------------------
A|---------------------------------------------------
E|---------------------------------------------------

Little Talks Live solo Tabs – Of Monsters And Men

 *-------------------------------------PLEASE NOTE-------------------------------------*
*-This file is the author's own work and represents their interpretation of the song.-*
*-------You may only use this file for private study, scholarship, or research.-------*
*-------------------------------------------------------------------------------------*

Originally released at December 20 2011 as the lead single from their debut album, 
"My Head is an Animal". Critically acclaimed all over the world, reaching :

#1 in Iceland(Tónlist), Ireland (IRMA), México (Billboard), US Alternative (Billboard)
#2 in Canada Alternative Rock, Czech Radio Top 100
#3 in Belgium Ultratop 50, Italy (FIMI), US Hot Rock (Billboard), US Rock Billboard)
Top 5 in Germany, Poland, New Zealand
Top 10 in Austria, Australia, Slovakia & Luxembourg

Driven by a reverb-y call-and-response verse, a galloping chorus and trumpet-focused riffs,
this song's the band's smashing hit.

===========================================================================================

 Pelusteriano
Contact at my UG profile
Lyrics  by Nanna Bryndís Hilmarsdóttir & Ragnar Þórhallsson
Music by Of Monsters and men
Key of Bb minor

===========================================================================

Note: This version is based on the next live performance
      Live at KEXP: https://youtu.be/GZ-kXZsUa_w

      I will keep including the trumpet solos for other live peformances as
      I figure them out. If you have any suggestion, let me know in the 
      comments.

===========================================================================
Chords (low to high, standard tuning, relative to capo at 1st fret)
Am X02210  F 133211  C X32010  G 320033


TRUMPET SOLO (KEXP '11 performance)

Begins at last bar of first chorus
Trumpet arr. for guitar (chords relative to capo, tab not relative to capo)

  C   G            Am         F        C            G
|---------------||-6h8h9-(9)---------|-11----9-8-----------------|
|---------4/6-9-||----------------11-|----11-----11-9------------|
|-----6-8-------||-------------------|----------------11-10-8----|
|---------------||-------------------|------------------------11-|
|---------------||-------------------|---------------------------|
|---------------||-------------------|---------------------------|
           /: Slide up   (X): let ring
                    h: Hammer-on

  Am              F                 C               G
|---------------------------------|--------------------------|
|------9-------9-------9-------9--|------9-------9-------9---|
|-8h10----8h10----8h10----8h10----|-8h10----8h10----8h10-----|
|---------------------------------|--------------------------|
|---------------------------------|--------------------------|
|---------------------------------|--------------------------|

  Am            F                C                  G
|--9------------9-9------------|-11-11-13--11-9-11--9-8-9--8-6-8--|
|-----9-11--11------11--9--11--|----------------------------------|
|------------------------------|----------------------------------|
|------------------------------|----------------------------------|
|------------------------------|----------------------------------|
|------------------------------|----------------------------------|

  Am             F              C          G            Am . . . Enter fade to interlude
|-----------------------------|-----------------------|--------|
|-6------6---------------5h6--|-----------------------|--------|
|----8-6---8-6-8-6----8-------|-8--6p5----------------|--------|
|-----------------------------|--------6---8--6h8-6---|-(6)----|
|-----------------------------|-----------------------|--------|
|-----------------------------|-----------------------|--------|
                                    p: Pull-off



***************************************************************************************
                    Did you like this tab? Leave a comment 

Beautiful Birds solo Tabs – Passenger

 -------------------------------------------------------------------------------
                             Beautiful birds - Passenger
-------------------------------------------------------------------------------

Hi everyone, hope y'all having a happy holiday. 

This is an easy version of tabbing the song that I've created and it sounds accurate. Enjoy!

Capo on 7th fret
  
Intro:
e|---3-2---0-----------------------3-2---0-------------3-2-------------------|
B|-------3-------3---------------------3-------3-----3-----------------------|
G|--0----------0---2---2-4-----2-0-----------0---2-0-------------------------|
D|-------------------0-------0-----------------------------------------------|
A|-----------3-----------------------------3---------------------------------|
E|-0-----------------------3-------------------------------------------------|

e|-3-2---0-------------------------------------------------------------------|
B|-----3-------3-----------------------------0-3---1-1h0---------------------|
G|-----------0---2---2-4-----2-0-------0---0-----0---------------------------|
D|-----------------0-------0-------0h2---2-----------------------------------|
A|---------3---------------------3-------------------------------------------|
E|-----------------------3---------------------------------------------------|


Second tabbing (between the second and third stanzas), almost the same as the first plate: 


e|-3-2---0-----------------------3-2---0-------------3-2---------------------|
B|-0---3-------3---------------------3-------3-----3-------------------------|
G|-0---------0---2---2-4-----2-0-----------0---2-0---------------------------|
D|-0---------------0-------0-------------------------------------------------|
A|---------3-----------------------------3-----------------------------------|
E|-----------------------3---------------------------------------------------|

e|-7-5-3-0-3-2-------0-------------------------------------------------------|
B|-------------3-0-3---3---0-0-1ho-------------------------------------------|
G|-----------------------2---------------------------------------------------|
D|---------------------------------------------------------------------------|
A|---------------------------------------------------------------------------|
E|---------------------------------------------------------------------------|


And than in the end from the last word (cage):

e|----3-2-7---7---7-5-3---3-0-3-2-3-2-3-2---0--------------------------------|
B|---3------------------------------------3-------3--------------------------|
G|--2-------0---0-------0-----------------------0---2---2-4-----2-0----------|
D|-0--------------------------------------------------0-------0--------------|
A|--------------------------------------------3------------------------------|
E|----------------------------------------------------------3----------------|

e|----------------3----------------------------------------------------------|
B|------------0-3-0----------------------------------------------------------|
G|---0------0-----0----------------------------------------------------------|
D|--0h2-2---------0----------------------------------------------------------|
A|-3------3------------------------------------------------------------------|
E|---------------------------------------------------------------------------|



************************************

| /   slide up
| \   slide down
| h   hammer-on
| p   pull-off
| ~   vibrato
| +   harmonic
| x   Mute note
| b   Bend
| pb  Pre-bend
| br  Bend release
| pbr Pre-bend release
| brb Bend release bend

************************************

Angel Of Small Death The Codeine Scene solo Tabs – Hozier V3

 -------------------------------------------------------------------------------------------------
Hozier - Angel Of Small Death & The Codeine Scene
-------------------------------------------------------------------------------------------------

First of all, I haven't written the tabs myself. I have found someone on YouTube who made a small tutorial.
So all the thanks here should go to him. It's a fearly easy solo to learn but a fun one to play.

Link: https://www.youtube.com/watch?v=0oVhO46ETWs (Be shure to check it out and like his video!)

I've seen Hozier playing it live on video and this seems really accurate. Solo starts at 2:06

Link: https://www.youtube.com/watch?v=txEI3PEOsPE


Solo: standard tuning

e|---------------------------------------------------------------|
B|---------------------------------------------------------------|
G|--4(b)6--4--2--4(b)6--4--2---2---------------2-----------------|
D|---------------------------4---4------2--4-4-------------------|
A|----------------------------------2/4--------------------------|
E|---------------------------------------------------------------|

e|---------------------------------------------------------------|
B|---------------------------------------------------------------|
G|--4(b)6--4--2-----2--------------------------------------------|
D|----------------4---4--------2--4-4----------------------------|
A|-----------------------2/4-------------------------------------|
E|---------------------------------------------------------------|

e|---------------------------------------------------------------|
B|-----5---7--5--------------------------------------------------|
G|--/6---6------6/4--2--4--2--2-1--------------------------------|
D|---------------------------------------------------------------|
A|---------------------------------------------------------------|
E|---------------------------------------------------------------|

e|---------------------------------------------------------------|
B|---------------------------------------------------------------|
G|--4(b)6--4--2-----2--------------------------------------------|
D|----------------4---4--------2--4-4----------------------------|
A|-----------------------2/4-------------------------------------|
E|---------------------------------------------------------------|


Enjoy!


Hakke

Shoot All The Clowns solo Tabs – Bruce Dickinson

 -------------------------------------------------------------------------------
                SHOOT ALL THE CLOWNS GUITAR LEAD -BRUCE DICKINSON 
-------------------------------------------------------------------------------
:BABYLONIANFIRE
jam9you
this is just the guitar lead fills and first solo from SHOOT ALL THE CLOWNS
FROM BALLS TO PICASSO album with Tribe of Gypsys
please listen to the song for all the fills exact timing 
will be working on the rest of the lead guitar riffs and solos soon
please feel free to ask questions and post comments 
Thanks and enjoy!

Tuning:EADGBE
 first guitar lead fill
e|---------------------------------------------------------------------------|
B|---------------------------------------------------------------------------|
G|-4fb-4-2-4-4-4--2------------------2------4b-4-2---------------------------|
D|-------------------------------2-4---4-2---------4-2------4----------------|
A|-------------------------2--4------------------------4-2-------------------|
E|-------------------0-2-4---------------------------------------------------|
  second  
e|---------------------------------------------------------------------------|
B|---------------------------------------------------------------------------|
G|--2qb--2qb-2qb-2qb---------------------------------------------------------|
D|---------------------------------------------------------------------------|
A|-------------------2-0-2-0-------------------------------------------------|
E|---------------------------2-----------------------------------------------|
 Third 
e|---------------------------------------------------------------------------|
B|---12b-12b-12b-12b--10-----------------------------------------------------|
G|---11--11--11--11------11--9--9---11---------------------------------------|
D|---------------------------------------------------------------------------|
A|---------------------------------------------------------------------------|
E|---------------------------------------------------------------------------|
  Fourth
e|---------------------------------------------------------------------------|
B|---4b-4--2-4---------------------------------------------------------------|
G|---4b-4--2-4-4b-4--2----4--2-----------------------------------------------|
D|----------------------4------4-2--4----------------------------------------|
A|---------------------------------------------------------------------------|
E|---------------------------------------------------------------------------|
  first guitar solo 
e|---------------------------------------------------------------------------|
B|---4b-4----------------------------------------------------10-10-----------|
G|---4b-4--2----------2b------2-4-4b-4h2-----2---------9--11--------11-11----|
D|------------4--2--4-----2-4-------------4------9-11------------------------|
A|---------------------------------------------------------------------------|
E|---------------------------------------------------------------------------|

e|--------------------12--12-12-12-12-12-12-12-12-12-12-12-12-12-12----------|
B|--12b-12h10----10---12b----12b---12b---12b---12b---12b---12-12-12--10------|
G|------------11-------------------------------------------------------------|
D|---------------------------------------------------------------------------|
A|---------------------------------------------------------------------------|
E|---------------------------------------------------------------------------|

e|---------------------------------------------------------------------------|
B|---------------------------------------------------------------------------|
G|--9-6---6h9p6---6h9p6---6h9p6---6h9p6----6h9p6-----------------------9-----|
D|------9-------9-------9-------6-------6--------9-7-9-7------7--------------|
A|-------------------------------------------------------7--9----9-7---------|
E|--------------------------------------------------------------

Blasphemy solo Tabs – Bring Me The Horizon V2

 -------------------------------------------------------------------------------
                             BLASPHEMY - Bring Me The Horizon
-------------------------------------------------------------------------------
:Maddy S
Instagram:maddybvb


Tuning:A# (B flat)

C |----------------------------------------------------------------------------------------------| 
G |------------13-------13/15----17(b)18(r)17----------------------------------------------------|
D#|---12/14---------14------------------------------------------12-------------------------------|
A#|----------------------------------------------------------------------------------------------|
F |----------------------------------------------------------------------------------------------|
A#|----------------------------------------------------------------------------------------------|

e|---10------------------------------------------10/--------------------------------------------------|
B|--------10--13---------------------------------10/--------------------------------------------------|
G|------------------12-10h12-12/14-12-10--------------------------------------------------------------|
D|----------------------------------------------------------------------------------------------------|
A|----------------------------------------------------------------------------------------------------|
E|----------------------------------------------------------------------------------------------------|

e|---10-----------------------------------------------------------------------------------------------|
B|-------13p10--------13p10-------------------------------------------13------------------------------|
G|---------------12----------12----------------10----------12/14-----------12-------------------------|
D|-------------------------------12-----10h12-------12------------------------------------------------|
A|----------------------------------------------------------------------------------------------------|
E|----------------------------------------------------------------------------------------------------|

e|-------------------------------------------13-15-15(b)17---17(b)20----15--17--13--------------------|
B|--15/17--13-13------------------13h15-----------------------------------------------15--------------|
G|----------------12p10-------------------------------------------------------------------------------|
D|----------------------------------------------------------------------------------------------------|
A|----------------------------------------------------------------------------------------------------|
E|----------------------------------------------------------------------------------------------------|


************************************

| /   slide up
| \   slide down
| h   hammer-on
| p   pull-off
| ~   vibrato
| +   harmonic
| x   Mute note
| b   Bend
| pb  Pre-bend
| br  Bend release
| pbr Pre-bend release
| brb Bend release bend

************************************

In The Aeroplane Over The Sea solo Tabs – Neutral Milk Hotel

 -------------------------------------------------------------------------------
              Neutral Milk Hotel - In the Aeroplane over the Sea
-------------------------------------------------------------------------------
This is the tab for the horn solo that starts at 1:12 if it were to be played on guitar.
Tuning:E Standard

e|---------------------------------------------------------------------------|
B|---------------------------------------------------------------------------|
G|--------7---5-4---------9-7-4----------5----4-------------7-7-9-7-4-5-7----|
D|----------------7--5----------5-7--------------7-5-4-----------------------|
A|-----------------------------------------------------7---------------------|
E|---------------------------------------------------------------------------|

************************************

| /   slide up
| \   slide down
| h   hammer-on
| p   pull-off
| ~   vibrato
| +   harmonic
| x   Mute note
| b   Bend
| pb  Pre-bend
| br  Bend release
| pbr Pre-bend release
| brb Bend release bend

************************************

Only A Broken Heart solo Tabs – Tom Petty

 ---------------------------------------------------------------------------------------------------------------
                                          Artist - Tom Petty
                                         ********************
                                      Song - Only A Broken Heart
                                     ****************************
                                      Album - Wildflowers (1994) 
                                     ****************************
                                          - Ayreon77
                                        **********************
---------------------------------------------------------------------------------------------------------------
Tuning = Standard
                                    Played on A 12 string Acoustic.

                                                                                            s
e|-------------|----------|-------------------h-----|----h---8--8-|-8-8-10-10--10-10-8-10-10\12-|
B|----------h--|----------|----------s--8--8-8-10-8-|-8-8-10------|-----------------------------|
G|----h--5-5-7-|-5---5--7-|--s----5-5\7-------------|-------------|-----------------------------|
D|-5-5-7-------|---7------|-3\5-7-------------------|-------------|-----------------------------|
A|-------------|----------|-------------------------|-------------|-----------------------------|
E|-------------|----------|-------------------------|-------------|-----------------------------|

                                                     s      s 
e|------h-----|----h------|----8-10-10--10-10-8-10-10\12--10\8-------12-10-8-|--------------------------|
B|-8-8-8-10-8-|-8-8-10-10-|-10----------------------------------10-8---------|-----------s--8-8---------|
G|------------|-----------|--------------------------------------------------|--s----5--7\9-----9-7-7-5-|
D|------------|-----------|--------------------------------------------------|-5\7-7--------------------|
A|------------|-----------|--------------------------------------------------|--------------------------|
E|------------|-----------|--------------------------------------------------|--------------------------|


e|-----------------8-|-----------s---8-|
B|----s--8-8-10-8----|----s--8--8\10---|
G|-5-7\9-------------|-5-7\9-----------|
D|-------------------|-----------------|
A|-------------------|-----------------|
E|-------------------|-----------------|



ENJOY.........

Traicionero solo Tabs – La Beriso

 -------------------------------------------------------------------------------
                             Traicionero - La Beriso
-------------------------------------------------------------------------------
: Costa Alejandro
 alejandro.r.costa
  


                        PUNTEO
                       --------


e|----------------------------------|
B|----------------------------------|
G|-12/13-13-13--12-13-15--13-15-17--|
D|----------------------------------|
A|----------------------------------|
E|----------------------------------|



e|-------------------------------------------------------|
B|-------------------------------------------------------|
G|17-17-17-17-17/18-17-13-13-15-15/17-17--15/17\15-13-13-|
D|-------------------------------------------------------|
A|-------------------------------------------------------|
E|-------------------------------------------------------|



                                                                 [    Let Ring    ]
e|----------------------------------------------------------------------------13-13-|
B|-------------------------------------------------------------------------13-13-13-|
G|-12-13-15-13--12/13\12----12------------------------------------------13----------|
D|-----------------------15----15-15/13\15--11/13\11-------13/15--13^15-------------|
A|---------------------------------------------------15-16--------------------------|
E|----------------------------------------------------------------------------------|



e|-13-15-16--15/16\15--13/15\13----|----------15-16-18--20b-----18-16-18-16-------|
B|------------------------------16-|-15-16-18-------------------------------18-18-|
G|---------------------------------|----------------------------------------------|
D|---------------------------------|----------------------------------------------|
A|---------------------------------|----------------------------------------------|
E|---------------------------------|----------------------------------------------|

            
e|---------------16\13------------------------------------13/15\13--------|
B|----18-----13--------16\13----------13-13/15\13-----11-----------15-16--|
G|-18-18--13-13--------------15\12-15--------------12---------------------|
D|------------------------------------------------------------------------|
A|------------------------------------------------------------------------|
E|------------------------------------------------------------------------|


        b = Bending
        / = Arrastre Ascendente
        \ = Arrastre Descendente


Me Gusta mucho este punteo.

.

What I Like About You solo Tabs – Romantics

 -------------------------------------------------------------------------------
                What I Like About You - The Romantics
-------------------------------------------------------------------------------
: Natalie


Tuning:EADGBe

e|---------------------------2--2--2-----------------------------------------|
B|-----10---9---10-----------3--3--3------2--2--2--2-------------------------|
G|-----9----9---9------------2--2--2------2--2--2--2-------------------------|
D|----------------------------------------2--2--2--2-------------------------|
A|---------------------------------------------------------------------------|
E|---------------------------------------------------------------------------|

this is the riff that is played throughout the song several times.

This tab goes along with the song in the key of E.

Where Could I Go solo Tabs by Ben Harper And The Blind Boys Of Alabama

 ---------------------------------------------------------------------------------------------------
                               Artist - Ben Harper & The Blind Boys of Alabama
                              *************************************************
                                          Song - Where could I go
                                         *************************
                                            - Ayreon77
                                          **********************
---------------------------------------------------------------------------------------------------
Tuning = Standard



e|--b-------|-------10---p---------------------------|------------------------------|
B|-13-~~~~~-|--b-10----13-10--brp--------h-------p---|--brp--------h-----h---p------|
G|----------|-12-------------12--10----10-12---12-10-|-12--10----10-12-10-12--10----|
D|----------|-----------------------12---------------|--------12-----------------12-|
A|----------|----------------------------------------|------------------------------|
E|----------|----------------------------------------|------------------------------|

                                              b            
e|----------------------------|-------10--b--13~~~~~~~--13~~~~~-|-10-10--b-|
B|-----------------brp--------|--b-10----13---------------------|-------13-|
G|----10----10----12--10----s-|-12------------------------------|----------|
D|-12----12----12--------12-\-|---------------------------------|----------|
A|----------------------------|---------------------------------|----------|
E|----------------------------|---------------------------------|----------|


e|-------10---p-------------|-------------------------------------------------|
B|--b-10----13-10--brp------|---h-----h-----------h-----h-----------h---------|
G|-12-------------12--10----|-10-12-10-12-10----10-12-10-12-10----10-12-10----|
D|-----------------------12-|----------------12----------------12----------12-|
A|--------------------------|-------------------------------------------------|
E|--------------------------|-------------------------------------------------|


e|-------10---p----------------|--------------------------|----------------|
B|--b-10----13-10--brp---------|---------------h----------|----------------|
G|-12-------------12--10----10-|-----s---10--10-12-10---s-|-s------------s-|
D|-----------------------12----|-8-10\12--------------12\-|-\10-10-10-10-\-|
A|-----------------------------|--------------------------|----------------|
E|-----------------------------|--------------------------|----------------|